(Прислал: Роман Меркулов (подбор),
E-mail: [email protected])
Для акустического варианта предлагается заменить квинты соответствующими
Аккордами:
E5 G5 A5 Н5 C5 D5
| | | | | |
E(m) G A Н C D
Вступление: (E5) (G5) (A5)
Бас: E)-0-0-0-0-0-0-0-0-3-3-3-5---5-5-5-| [x2]
E5 D5 E5 D5 E5 G5 F#5
3)-9-9-7-9----7-9-----12-12-11------|
4)-9-9-7-9----7-9-----12-12-11------| [x2]
5)-7-7-5-7----5-7-----10-10-9-------|
6)----------------------------------|
В акустическом варианте этот рифф можно заменить на:
Em G F#
1)-0-0---0------0-----3-3-2---------|
2)-0-0-0-0----0-0-----3-3-2---------|
3)-0-0-0-0----0-0-----4-4-3---------| [x2]
4)-2-2-0-2----0-2-----5-5-4---------|
5)-2-2-0-2----0-2-----5-5-4---------|
6)-0-0-0-0----0-0-----3-3-2---------|
Куплет:
Em G A
Опять ночь без сна
Em G A
В окно смотрит луна
Em G A
Наверно знает она
A Н D
Отчего так мучают кошмары
Опять слышу я
Сухой треск огня
И жена кричит моя
Год назад сгоревшая в кровати
Внизу мой сосед
Его слышен бред
В том подвале потухший свет
Стал причиной очень странной смерти
Припев:
Н
Муж рассерженный отомстит
C
А несчастные люди - их бог простит
Em G A G C D
Ревность это беда, а измена - ерунда
Как устроен наш белый свет
Там где двое, для третьего места нет
Только в стенах твоих нету места
Для этих двоих
Луна ты не спишь
За мной ты следишь
То что слышу я ты услыш
Уничтожь прошу все эти звуки
E5 D5 E5 Em
3)-9-9-9-7-9-9-9-9-| 3)-0-0-0-0-0-0-0-0---|
4)-9-9-9-7-9-9-9-9-| === 4)-2-2-2-0-2-2-2-2---|
5)-7-7-7-5-7-7-7-7-|-[x8]-5)-2-2-2-0-2-2-2-2---|
6)-----------------| 6)-0-0-0-0-0-0-0-0---|
Вот мой ответ
Лютая месть
В доме их нет
В библии есть
E5 G5 A5
Есть,
E5 G5 A5
Eсть,
E5
Вместе!




Ваше мнение



Капча