1.Вступление
4:---------------
5:--555-...-555-- сколько играется не считал,а затем
6:---------------
pm...................

Гитара 1(distortion):каждая нота - 16 раз
4:-----------------------------------------------------------------------
5:--5555555555555555-3333333333333333-2222222222222222-0000000000000000--
6:-----------------------------------------------------------------------
рм.......................................................................

Гитара 2(overdrive)
1:--2----------------3----------------2----------------0---------------
2:--3----------------3----------------3----------------2--3-1-0-3-1-0--
3:--2----------------0----------------4----------------2---------------
4:--0----------------0----------------4----------------2---------------
5:-------------------2----------------2----------------0---------------
6:-------------------3----------------2--------------------------------

Гитара 1(distortion)
1:--------------15хх15хх15х--------------------------
2:--15хх15хх15х-------------12хх12хх12х--------------
3:--------------------------------------14хх14хх14х-- играется
2 раза
Гитара 2(distortion)
4:--7-----------5-----------4-----------7------------
5:--5-----------5-----------2-----------7------------
6:--------------3-----------------------5------------

2.Основная часть
Гитара 1(distortion):каждая нота - 16 раз 4:-----------------------------------------------------------------------4-5-7
5:--5555555555555555-3333333333333333-2222222222222222-0000000000000000--2-5-7
6:-------------------------------------------------------------------------3-5
рм.....................................................................

Гитара 2(overdrive)
1:--2----------------3----------------2----------------0---------------
2:--3----------------3----------------3----------------2--3-1-0-3-1-0--
3:--2----------------0----------------4----------------2---------------
4:--0----------------0----------------4----------------2---------------
5:-------------------2----------------2----------------0---------------
6:-------------------3----------------2--------------------------------
Один молодой отец ...
Повел своих детей ...

Гитара 1(distortion)
1:---------------3-1-0-3-1-0----------------------------
2:--3-1-0-3-1-0-----------------------------------------
3:----------------------------4-2-1-4-2-1---------------
4:-----------------------------------------7-5-4-7-5-4--

Гитара 2(distortion)
4:--7хх7хх7х-----5хх5хх5х-----4хх4хх4х-----7хх7хх7х-----
5:--5хх5хх5х-----5хх5хх5х-----2хх2хх2х-----7хх7хх7х-----
6:---------------3хх3хх3х------------------5хх5хх5х-----
Увидели они ...
Маски продавал ...

3.Припев
Гитара 1(distortion)
1:--------------15хх15хх15х--------------------------
2:--15хх15хх15х-------------12хх12хх12х--------------
3:--------------------------------------14хх14хх14х-- играется
2 раза
Гитара 2(distortion)
4:--7-----------5-----------4-----------7------------
5:--5-----------5-----------2-----------7------------
6:--------------3-----------------------5------------
Купи,отец,нам маски .../Вокруг отца плясали .../Отец лежал ...
Об этом мы .../Ах,папа,ты .../А вурдалак ...

Далее играется аналогично,вот только когда Горшок поет:"Отец полез в карман за маски
расплатиться.../Кабан терзал ...",играется припев,но на шаг выше.

4.Переход(перед соло)
4:---------------
5:--555-...-555--
6:---------------
рм...............

5.Соло(2 гитары distorted)
1:--------3-1-0-------------------5-3-2-----------------
2:--3-1-0-------------------5-3-2-----------------------
3:--------------4-2-1-------------------5-3-1-----------
4:--------------------7-5-4-------------------9-7-6--7--

P.S.
Исправления присланные на email(см.выше)будут рассмотрены лично мной.
И последнее:нужно соло "Штиля" Арии.СРОЧНО!!!




Ваше мнение



Капча