Am G Em F
Ослепший старый маг ночью по лесу бродил
на кладбище разлил он волшебный элексир
И лишь проговорил : "Что ж я старый натворил!"
Гитара:
4)--7-9-7-9-7-9--12-12--
5)--5-7-5-7-5-7--10-10--
6)--0-0-0-0-0-0---------
4)--7-9-7-9-7-9--14-14--- -7-9-7-9-7-9---12-12----7--6-5-------
5)--5-7-5-7-5-7--12-12--- -5-7-5-7-5-7---10-10----7--6-5-------
6)--0-0-0-0-0-0---------- -0-0-0-0-0-0------------5--4-3-------
Куплет:
E5 G5 E5 A5 E5 G5 A5 G#5
G5
2)----------------------------------------------------------------------------
------5^b-
3)----------------------------------------------------------------------------
------5^b-
4)-2-2-2-2-2-2-2-2--5-5--2-2-2-2-2-2-2-2--7-7--2-2-2-2-2-2-2-2--5-5---7-x-7-x-
-6-5------
5)-2-2-2-2-2-2-2-2--5-5--2-2-2-2-2-2-2-2--7-7--2-2-2-2-2-2-2-2--5-5---7-x-7-x-
-6-5------
6)-0-0-0-0-0-0-0-0--3-3--0-0-0-0-0-0-0-0--5-5--0-0-0-0-0-0-0-0--3-3---5-x-5-x-
-4-3------
ХОЙ ХОЙ ПОГО ПОГО
Трупы оживали землю разрывали всюду выползали дико бушевали
Глотки драли всё вокруг ломали рвали свою плоть
Это место люди не любили и потому что здесь гадов хоронили
Все они водку пили проклятыми были
Припев:
соляк во время припева:
4)-10-9-9-10-9-9-10-9-9-10-9-10---9-7-7-9-7-7-9-7-7-9-7-9-
4)-14-12-12-14-12-12-14-12-12-14-12---12-10-10-12-10-10-12-10-10-12-10-12--
A5 G5 E5 F5
Среди ублюдков шёл артист в кожанном плаще мёртвый анархист
Крикнул он ХОЙ! челюсть долой трупов вёл он за собой
A5 G#5 G5 F#5
3)--9-8-7-6---- X2
4)--7-6-5-4----




Ваше мнение



Капча

Комментарии

Лекси
Веселенькая песенка:)) Мне очень нравится группа "Король и Шут" (КиШ) и Мертвый анархист не единственная песня в их исполнении, которая мне нравится, есть еще несколько: Фред, Свой, Невеста палача.. Советую послушать!