Intro:
Em G5 A5 E5 G5 A5
1-----------------------------
2-----------------------------
3-----------------------------

Solo 1:
E5 G5 A5
2---------------------------------------------8------------7h8p7-
3-9---9---7---9---x---x---x--(9)--x--(9)--x---7------------------
4-9---9---7---9---x---x---x--(9)--x--(9)--x----------------------

Solo 2:
E5 G5 A5
2--------------------------------------------------8-------7h8p7-
3-9--------------------------------------9----x------------------
Опять ночь без сна,
В окно смотрит луна.

Solo 3:
E5 D5
2--------------------------------------------------8-------7h8p7-
3-9--------------------------------------9----x------------------
Наверное, знает она,
C5 B5 G5
2-10--x---8---x---7---x---10--8---x---7---x--------8-------7-----
3----------------------------------------------------------------
го, так му - чают кош - ма - ры!..

(Solo 2)
Опять слышу я
Сухой треск огня.

Solo 4:
E5 D5
2----------------------------------------------------------------
3-9-----------------------------------7---x--------9-------7-----
И жена кричит моя,
(Далее, как в Solo 3)
Год назад сгоревшая в кровати.

(Solo 2)
Внизу мой сосед,
Его слышен бред.

(Solo 3)
Там, в подвале, потухший свет,
Стал причиной очень странной смерти!..

Chorus:
B5*
Муж рассерженный отомстит,
C5*
Они честные люди, их Бог простит.
E5 G5 A5 D5 G5 C5 D5
Ревность - это беда, а измена - ерунда!
Так устроен наш белый свет:
Там, где двое, для третьего места нет.
Только в стенах моих нету места
Для этих двоих!

(Solo 2)
Луна. Ты не спишь.
За мной ты следишь.

(Solo 3)
То, что слышу я, ты услышь!
Уничтожь, прошу, все эти звуки!

Chorus

Solo 5:
E5
2----------------------(8)---
3-9---9---7---9--------------
Вот мой от-вет
лю- та - я месть!
В до- ме их нет, но
кри- ки их есть
(Второй раз)
E5 G5 A5 E5 E5 A5
Вот мой ответ лютая месть! В доме их нет, но крики их есть
-----------------
B5* C5* (acoust)
1--------------------
2--0-----0-----------
3--4-----5-----------
4--4-----5-----------
5--2-----3-----------
6--------------------

Новотроицк (Оренбургской обл.)




Ваше мнение



Капча