From: asterix [email protected]

Истинный убийца
Обозначения:

Gliss – ребром медиатора провести по струнам;
«/» - место, где нужно играть соответствующий аккорд;
«/ - /» - переезд с одного лада на другой;
«-----» - место, где струны глушатся(pm);
«2/» - натяжение струны на 2-ом ладу.

Вступление:
Барабанная дробь
Gliss-----
Проигрыш:
F# H C#
[ / / / / / // ] play 4 times

Hm----------------H C#
/ / / / / / / / / - / /
Его вели на эшафот,
Он, что есть мочи, заорал:
"Да помогите мне, народ!
Hm-----------------------
/ / / / / / / / / / /
Ведь я, клянусь, не убивал!" H|-5/-5/-5/--||

Припев:
Fm# H C#
"Эй, вы! Я же хотел добра!
Эй, вы! За что меня?
Стойте! Может, не надо, а?
Стойте! Невинен я!"

Проигрыш.

Палач затачивал топор,
Несчастный с горя зарыдал:
"За что же ты меня, за что?
Ведь я, клянусь, не убивал!" H|-5/-5/-5/--||

Припев.

Соло:
H|------------------||
G|-6-------6--------||
D|---8-6-----99-6---|| play 4 times
A|-------7--------7-||

H|------------------||
G|-4-----6-----8----||
D|------------------||
A|------------------||

H|------------------||
G|-6-------6--------||
D|---9-6-----99-6---||
A|-------7--------7-||

H|-5/5/5/5/5/5/5/5/-||
G|------------------||
D|------------------||
A|------------------||

И отвечал ему палач:
"Мне честно, парень, жаль тебя.
Я знаю - ты не убивал,
Убийца потому что я!" H|-3/-3/-3/--||

Припев (2 раза).




Ваше мнение



Капча