From: Patron [email protected]
Группа: Король и Шут
Песня: "Девушка и Граф"
Табулатура и сноска на аккорды
Итак, после долгих проб и споров , мы с друзьями представляем вашему вниманию оптимальный вариант перебора для этой лирической песни КиШа.
Не утверждаю, что точь в точь, но звучит красиво :) Девушкам нравится :))
И ещё один маленький совет - правильно учитывайте такт. Для этого прислушайтесь к бас-партии в оригинале.
Проигрыш:
_C
|----------------
|-----3-1--------
|---------0------
|---2-------2----
|-3--------------
|----------------
Куплет:
Первая часть: со слов "С прекрасной дамой..." и "Какая ночь..."
_C _Am _F _G(баре)
|---------------------------------------------
|-----3-1---------3-1-------1---------3-------
|-----------------------------2---------4-----
|---2-----------2---------3-----3---5-----5---
|-3-------3-2-0-------0-----------------------
|-----------------------1---------3-----------
_F _G(баре) _C _Am
|---------------------------------------------
|-----1---------3---------1-----1-------1-3---
|-------2---------4-------------------2-------
|---3-----3---5-----5---2-----0-----2-------2-
|---------------------3-----2-----0-----------
|-1---------3---------------------------------
Вторая часть: со слов "Навеки вашей стать..."
_F _G(баре) _C (проигрыш)
|---------------------------------------------
|-----1---------3----------3-1----------------
|-------2---------4------------0--------------
|---3-----3---5----------2-------2------------
|----------------------3----------------------
|-1---------3---------------------------------
Припев: Те же аккорды, что и Вторая часть куплета,
только в конце C7
_F _G(баре) _C _Am
|---------------------------------------------
|-----1---------3---------1-----1-------1-3---
|-------2---------4-------------------2-------
|---3-----3---5-----5---2-----0-----2-------2-
|---------------------3-----2-----0-----------
|-1---------3---------------------------------
_F _G(баре) _C (проигрыш)_С7
|---------------------------------------------
|-----1---------3----------3-1----------1-----
|-------2---------4------------0----------3---
|---3-----3---5----------2-------2----2-----2-
|----------------------3------------3---------
|-1---------3---------------------------------
Отдельное спасибо тов. Дмитрию a.k.a. Narkosha
Красивую музыку в массы!
Patron




Ваше мнение



Капча

Комментарии

Настенька
Обожаю эту песню ! Я её и пою, и на скрипке, и на гитаре играю ! Классная песня ! И вообще всё что связано с КиШом Для меня лучшее !!