Tabbed By : Ricky
e-mail: [email protected]
Tuning: GDAE
Intro (repeat when necesary)
G|---------------------------------------------------------------------------
D|---------------------------------------------------------------------------
A|---------------------------------------------------------------------------
E|-1-0---1-0-----------------------------------------------------------------
Main Riff
G|---------------------------------------------------------------------------
D|---------------------------------------------------------------------------
A|---------------------------------------------------------------------------
E|-1-03333101----1-03333101--------------------------------------------------
Verse
G|---------------------------------------------------------------------------
D|---------------------------------------------------------------------------
A|------------------------------2/5-5-4-3-2----------------------------------
E|-2-2-2-2h3-(repeat)----2-3/5-----------------------------------------------
G|---------------------------------------------------------------------------
D|---------------------------------------------------------------------------
A|-------------------------2-2-2-2h3----------2------------------------------
E|-2-2-2-2h3-(repeat)-then------------5-5-5-55-------------------------------
Back To Main Riff
then
G|---------------------------------------------------------------------------
D|---------------------------------------------------------------------------
A|---------2/5-5-4-3-2-------------------------------------------------------
E|--2-3/5--------------------------------------------------------------------
verse
Main Riff
G|---------------------------------------------------------------------------
D|---------------------------------------------------------------------------
A|---------2/5-5-4-3-2-------------------------------------------------------
E|--2-3/5--------------------------------------------------------------------
G|---------------------------------------------------------------------------
D|---------------------------------------------------------------------------
A|---------------------------------------------------------------------------
E|-1-0---1-0-----------------------------------------------------------------
The FUck That Shit Part
G|---------------------------------------------------------------------------
D|---------------------------------------------------------------------------
A|---------------------------------------------------------------------------
E|-2--32--32-3-3-3-----------------------------------------------------------
The Screaming Part
G|---------------------------------------------------------------------------
D|---------------------------------------------------------------------------
A|---------------------------------------------------------------------------
E|--2-5555323--3--2-5555323--------------------------------------------------
G|---------------------------------------------------------------------------
D|---------------------------------------------------------------------------
A|---------------------------------------------------------------------------
E|-033333101--033333101--33333101--033333101---------------------------------


Ваше мнение



Капча