-------------------------------------------------------------------------------
Korn - Wicked
-------------------------------------------------------------------------------
Tabbed By : Roddy

intro & verse

Gtr.1
A ----21-------------19---211917-16---(16)-------------------------
D -----------------------------------------------------------------
G -----------------------------------------------------------------
C -----------------------------------------------------------------
F -----------------------------------------------------------------
A -----------------------------------------------------------------
D -----------------------------------------------------------------

Gtr.2
A -----------------------------------------------------------------
D -----------------------------------------------------------------
G -----------------------------------------------------------------
C ----------------------5----4---3---------------------------------
F ---------5----4--------------------------------------------------
A ----0------------------------------------------------------------
D -----------------------------------------------------------------

Chorus

Both Gtrs
A -----------------------------------------------------------------
D -----------------------------------------------------------------
G -----------------------------------------------------------------
C ----------------------------------5----4----3--------------------
F -----7/6----5//////4--------------5----4----3--------------------
A -----7/6----5//////4--------------3----2----1--------------------
D -----5/4----3//////2---------------------------------------------

Bridge

Both Guitars
A -------------------------------------------------------------------
D --17--17--17----16--16---14--(14)---13--13-----13-------12---11----
G --20--20--20----19--19---18--(18)---17--16--16------15-------13----
C -------------------------------------------------------------------
F -------------------------------------------------------------------
A -------------------------------------------------------------------
D -------------------------------------------------------------------

Can someone please rate this tab it is my first one




Ваше мнение



Капча