----------------------------------------------------------------------------
KoRn - When Will This End
----------------------------------------------------------------------------

artist: KoRn
song: when will this end
album: take a look in the mirror
tabbed by: Cesar

tuning: standard (E B G D A E) i do it on a 6 string gtr because i dont got
a 7 string gtr, i tried really hard in this tab, its hard to tab out this song,
but this song rules!, KoRn rule too!!

^ = bend
/ = slide
.. = let it ring
/-/-/ = slide slowly

intro, distorted
E|-----------------------|-------------------------------------------
B|---..play this 4x....then...play this 4x..-------------------------
G|-----------------------|----------10-------------------------------
D|-7--7-8--7-7-7--8-8-8--|--7-7-8-8-10-7-7/8^------------------------
A|-7--7-8--7-7-7--8-8-8--|--7-7-8-8--8-7-7/8^------------------------
E|-5--5-6--5-5-5--6-6-6--|--5-5-6-6----5-5/6^------------------------

going into the verse, P.M. (palm mute)
E|-------------------------------------------------------------------------
B|-------------------------------------------------------------------------
G|-------------------------------------------------------------------------
D|-7-7------7-7-----7-7----------------------------------------------------
A|-7-7------7-7-----7-7----------------------------------------------------
E|-5-5------5-5-----5-5----------------------------------------------------

verse, distorted, P.M., play all this 2x
E|-------------------------------------------------------------------------
B|-------------------------------------------------------------------------
G|-------------------------------------------------------------------------
D|-7--7-8--7-7-7--8-8-8----7--7-8--7-7-7--8-8-8----------------------------
A|-7--7-8--7-7-7--8-8-8----7--7-8--7-7-7--8-8-8----------------------------
E|-5--5-6--5-5-5--6-6-6----5--5-6--5-5-5--6-6-6----------------------------

pre-chorus, distorted, no P.M., play this all 2x
E|-------------------------------------------------------------------------
B|-------------------------------------------------------------------------
G|-------------------------------------------------------------------------
D|-7--7-8--7-7-7--8-8-8----7--7-8--7-7-7--8-8-8----------------------------
A|-7--7-8--7-7-7--8-8-8----7--7-8--7-7-7--8-8-8----------------------------
E|-5--5-5--5-5-5--6-6-6----5--5-6--5-5-5--6-6-6----------------------------

chorus, distorted, play this all 2x, im not sure about this part
E|-------------------------------------------------------------------------
B|-------------------------------------------------------------------------
G|-------------------------------------------------------------------------
D|-7--7-8-7--7-6-6---7--7-8-7--7-6-6---------------------------------------
A|-7--7-8-5--7-6-6---7--7-8-7--7-6-6---------------------------------------
E|-5--5-6-5--5-4-4---5--5-6-5--5-4-4---------------------------------------

bridge, start at 2:12 of the song, they use a pedal, but i don't know what,
im not sure about this, i tried
E|-------------------------------------------------------------------------
B|------------9/10-9/10-(10)-(12)13------------------12/11--12/10----------
G|-9--9/8-9-------------------------(8)-(7)---9--9/8-----------------------
D|----------7-------------------------------7------------------------------
A|-------------------------------------------------------------------------
E|-------------------------------------------------------------------------

bridge,u play this to at the bridge, P.M., the tab tells you when to play it
E|-------------------------------------------------------------------------
B|--2:17-------2:23------2:28----------------------------------------------
G|-------------------------------------------------------------------------
D|--7-7--------7-7-------7-7-----------------------------------------------
A|--7-7--------7-7-------7-7-----------------------------------------------
E|--5-5--------5-5-------5-5-----------------------------------------------

play this at the end
E|--------------
B|-8../-/-/11---
G|-7../-/-/10---
D|-5../-/-/-8---
A|--------------
E|--------------

thats all i know, enjoy




Ваше мнение



Капча