band-korn
song-wake up
Intro:(Guitar1 & Guitar2)
d|---------------------------------|-------------------------------|
a|---------------------------------|-------------------------------|
F|---------------------------------|-------------------------------|
C|---------------------------------|-------------------------------|
G|---------------------------------|-------------------------3---2-|
D|---------------------------3-----|-------------------------3---2-|
A|-2/3--0-2--0-2/3--0-2-0--3---3-0-|-2/3--0-2--0-2/3--0-2----1---0-|
Bridge:
(Guitar1)
d|----------------------------------------------|----------------------------------------------|
a|----------------------------------------------|----------------------------------------------|
F|----------------------------------------------|----------------------------------------------|
C|----------------------------------------------|----------------------------------------------|
G|9/109/109/109--4--9/109/109/109--//13-|-9/109/109/109--14-9/109/109/109--//13|
D|----------------------------------------------|----------------------------------------------|
A|----------------------------------------------|----------------------------------------------|
d|-------------------------------|
a|-------------------------------|
F|-------------------------------|
C|-------------------------------| (Guitar2)
G|-------------------------------|
D|-4/5-------4-------------5---4-|
A|-2/3--0--0-2-------------3-0-2-|
Verse:
d|-----12---------11-------8-------11-|
a|----9----------9--------9-------9---|
F|---9----------9--------9-------9----|
C|-11---------11-------11------11-----| (Guitar1)
G|------------------------------------|
D|------------------------------------|
A|------------------------------------|
Pre-Chorus:(Guitar1 & Guitar2)
d|---------------------------------|-------------------------------|
a|---------------------------------|-------------------------------|
F|---------------------------------|-------------------------------|
C|---------------------------------|-------------------------------|
G|---------------------------------|-------------------------3---2-|
D|---------------------------3-----|-------------------------3---2-|
A|-2/3--0-2--0-2/3--0-2-0--3---3-0-|-2/3--0-2--0-2/3--0-2----1---0-|
Chorus:
(Guitar1)
d|----------------------------------------------|----------------------------------------------|
a|----------------------------------------------|----------------------------------------------|
F|----------------------------------------------|----------------------------------------------|
C|----------------------------------------------|----------------------------------------------|
G|9/109/109/109--4--9/109/109/109--//13-|-9/109/109/109--14-9/109/109/109--//13|
D|----------------------------------------------|----------------------------------------------|
A|----------------------------------------------|----------------------------------------------|
d|-------------------------------|
a|-------------------------------|
F|-------------------------------|
C|-------------------------------| (Guitar2)
G|-------------------------------|
D|-4/5-------4-------------5---4-|
A|-2/3--0--0-2-------------3-0-2-|
Verse:
d|-----12---------11-------8-------11-|
a|----9----------9--------9-------9---|
F|---9----------9--------9-------9----|
C|-11---------11-------11------11-----| (Guitar1)
G|------------------------------------|
D|------------------------------------|
A|------------------------------------|
Pre-Chorus:(Guitar1 & Guitar2)
d|---------------------------------|-------------------------------|
a|---------------------------------|-------------------------------|
F|---------------------------------|-------------------------------|
C|---------------------------------|-------------------------------|
G|---------------------------------|-------------------------3---2-|
D|---------------------------3-----|-------------------------3---2-|
A|-2/3--0-2--0-2/3--0-2-0--3---3-0-|-2/3--0-2--0-2/3--0-2----1---0-|
Chorus:
(Guitar1)
d|----------------------------------------------|----------------------------------------------|
a|----------------------------------------------|----------------------------------------------|
F|----------------------------------------------|----------------------------------------------|
C|----------------------------------------------|----------------------------------------------|
G|9/109/109/109--4--9/109/109/109--//13-|-9/109/109/109--14-9/109/109/109--//13|
D|----------------------------------------------|----------------------------------------------|
A|----------------------------------------------|----------------------------------------------|
d|-------------------------------|
a|-------------------------------|
F|-------------------------------|
C|-------------------------------| (Guitar2)
G|-------------------------------|
D|-4/5-------4-------------5---4-|
A|-2/3--0--0-2-------------3-0-2-|
Bridge:
d|------------------------------------------|
a|-------------9/10/22-----------9/10/22/10-|
F|------------------------------------------|
C|------------------------------------------| (Guitar1)
G|------------------------------------------|
D|------------------------------------------|
A|------------------------------------------|
d|------------------------------------------|
a|------------------------------------------|
F|------------------------------------------|
C|------------------------------------------| (Guitar2)
G|------------------------------------------|
D|-4/5----4-------------4/5----4------------|
A|-2/3-00-2-------------2/3-00-2------------|
Fill1:(Guitar2)
d|------------------------------------------|
a|------------------------------------------|
F|------------------------------------------|
C|------------------------------------------|
G|------------------------------------------|
D|-5---4-----------------4/5----4-----------|
A|-3-0-2-----------------2/3-00-2-----------|
Chorus:
(Guitar1)
d|----------------------------------------------|----------------------------------------------|
a|----------------------------------------------|----------------------------------------------|
F|----------------------------------------------|----------------------------------------------|
C|----------------------------------------------|----------------------------------------------|
G|9/109/109/109--4--9/109/109/109--//13-|-9/109/109/109--14-9/109/109/109--//13|
D|----------------------------------------------|----------------------------------------------|
A|----------------------------------------------|----------------------------------------------|
d|-------------------------------|
a|-------------------------------|
F|-------------------------------|
C|-------------------------------| (Guitar2)
G|-------------------------------|
D|-4/5-------4-------------5---4-|
A|-2/3--0--0-2-------------3-0-2-|
Outro:
(Guitar1)
d|----------------------------------------------|----------------------------------------------|
a|----------------------------------------------|----------------------------------------------|
F|----------------------------------------------|----------------------------------------------|
C|----------------------------------------------|----------------------------------------------|
G|9/109/109/109--4--9/109/109/109--//13-|-9/109/109/109--14-9/109/109/109--//13|
D|----------------------------------------------|----------------------------------------------|
A|----------------------------------------------|----------------------------------------------|
d|---------------------------------------------|
a|-----------------------------------------54-|
F|-6---------------------------------64-------|
C|---------------------------------------------|
G|---------------------------------------------|
D|---------------------------------------------|
A|---------------------------------------------|




Ваше мнение



Капча