KoRN, Trash
Todd Miller, [email protected]
#----------------------------------PLEASE NOTE--------------------------------#
#This file is the author's own work and represents their interpretation of the#
#song. You may only use this file for private study, scholarship, or research.#
#-----------------------------------------------------------------------------#
#-- File created with Instab - http://www.pconline.com/~smcarey/instab.html --#
#-----------------------------------------------------------------------------#

Author/Artist: KoRN
Title: Trash
Album: Issues
Transcribed by: Todd Miller
Email: [email protected]

1. -|-------------------|-----
-|-------------------|-----
-|-9-9-7-12-10-9-7-9-|----- Ok this is the half ass intro.
-|-9-9-7-12-10-9-7-9-|-----
-|-7-7-5-10-8--7-5-7-|-----
-|-------------------|-----


2. -|-7----------------|-----
-|---14---12---12---|-----
-|------9----9------|----- Not sure if this is a guitar but it sounds ok.
-|------------------|-----
-|------------------|-----
-|------------------|-----


3. -|----------------------|---
-|----------------------|---
-|----------------------|--- This is the hard part.
-|-5-5-5-5-3-5-7-5-3-5--|---
-|-5-5-5-5-3-5-7-5-3-5--|---
-|-0-0-0-0-3-5-7-5-3-5--|---

Ok guys, as of now, I am really getting lazy. These are the main parts and riffs in the song so it wont hurt you to try and figure them out. My icq # is 27431846 if you got any questions and my aim name is bizkitblk182korn. Or email me at [email protected] Have fun!


Ваше мнение



Капча