This is played on a 7-stringed guitar tuned down a step
/ Slide
TAD Tremelo Arm Dive
~ Vibrato
* Palm damp

INTRO gtr 1~clean, reverb
d-------------------------------------------
A-------------------------------------------
F-------------------------------------------
C-------------------------------------------
G-------------------------------------------
D|----5----5--------5----5------7----7----7----8-8-8-8--
A|-0-0--0-0------0-0--0-0----0-0--0-0--0-0--0-0---------

INTRO gtr 2~clean, chorus, delay >repeated picking of notes
d-------------------------------------------
A-------------------------------------------
F-------------------------------------------
C-------------------------------------------
G-------------------------------------------
D|---5-------7-------8----------------------------------
A-------------------------------------------

INTRO gtr 3~pitch, reverb
d-------------------------------------------
A/12--/15----/11----------------------------
F-------------------------------------------
C/9---/12----/8-TAD~~~~~~-------------------
G-------------------------------------------
D-------------------------------------------
A-------------------------------------------

VERSE both gtrs~distortion
d-------------------------------------------
A-------------------------------------------
F-------------------------------------------
C|---------7------7----7----9----9-----9-----10101010---
G|-6-6-6-6-7------7----7----9----9-----9-----10101010---
D|-6-6-6-6-5------5----5----7----7-----7-----8-8-8-8----
A|-4-4-4-4-----0-0--0-0--0-0--0-0---0-0---0-0-----------

PRE CHORUS gtr1~distortion
d-------------------------------------------
A-------------------------------------------
F-------------------------------------------
C-------------------------------------------
G|-5-5-5/6-6-6-6/5-----5-5-5/6-6-6-6----3---------------
D|-5-5-5/6-6-6-6/5-----5-5-5/6-6-6-6----3--HOLD CHORD---
A|-3-3-3/4-4-4-4/3-----3-3-3/4-4-4-4-0--1---------------
*
CHORUS gtr 1~distortion
d-------------------------------------------
A-------------------------------------------
F-------------------------------------------
C|-2-2-2-2--2-2--2-2-2-2--2-2--5-5-5-5--5-5--5-5-5-5----
G|-2-2-2-2--2-2--2-2-2-2--2-2--5-5-5-5--5-5--5-5-5-5----
D|-0-0-0-0--0-0--0-0-0-0--0-0--3-3-3-3--3-3--3-3-3-3----
A-------------------------------------------

d-------------------------------------------
A-------------------------------------------
F-------------------------------------------
C|-5-5--------------------------------------------------
G|-5-5--5-5-5-5--5-5--5-5-5-5--5-5--3-3-3-3--3-3--3/5---
D|-3-3--5-5-5-5--5-5--5-5-5-5--5-5--3-3-3-3--3-3--3/5---
A|------3-3-3-3--3-3--3-3-3-3--3-3--1-1-1-1--1-1--1/3---

PLAY VERSE X4
PLAY PRE CHORUS X2
PLAY CHORUS X2

INTERLUDE gtr1~clean, chorus, heaps of delay
d-------------------------------------------
A-------------------------------------------
F-------------------------------------------
C-------------------------------------------
G-------------------------------------------
D|---5-------7----8-------------------------------------
A-------------------------------------------

INTERLUDE gtr2~slight overdrive, slight delay
d-------------------------------------------
A-------------------------------------------
F-------------------------------------------
C-------------------------------------------
G-------------------------------------------
D|----7----7------7----8-8-8-8---5--5--5----5-----------
A|-0-0--0-0----0-0--0-0---------0--0--0--0-0------------
* ** * ** * ** * ** * * * ** ** ** * **

PLAY VERSE WITH GUITAR 3´S INTRO X4
PLAY GUITAR 3´S INTRO X1
PLAY CHORUS X4

END ON gtr 3~pitch, reverb
d-------------------------------------------
a|---------11-------------------------------------------
F-------------------------------------------
C|---------8-TAD~~~~~-----------------------------------
G-------------------------------------------
D-------------------------------------------
A-------------------------------------------




Ваше мнение



Капча