Transcribed By Matthew Weatherspoon April-23-02 6:44 pm
[email protected]
Since UNtouchables Has Been Leaked, Guitarist couldnt wait to play these
songs, so ive tabbed them out
Song- Tear me down
Artist- KoRn
Album- Untouchables

Gtr 1
Intro
d ||-----------------------------------------------------
A ||-----------------------------------------------------
F ||-----------------------------------------------------
C ||-----------------------------------------------------
G ||-----------------------------------------------------
D ||-----5---5--------5----5------7-----7-----8 8 8 8----
A ||-0 0--0 0------0-0--0-0----0-0--0-0---0-0------------
Gtr 2
d ||-----------------------------------------------------
A ||-----------------------------------------------------
F ||-----------------------------------------------------
C ||-----------------------------------------------------
G ||-----------------------------------------------------
D ||---5 7 8---------------------------------------------
A ||-----------------------------------------------------
( on this Part Pick it constantly, im not sure how many time though)
Gtr 3
d ||-----------------------------------------------------
A ||-----------------------------------------------------
F ||-----------------------------------------------------
C ||-----------9----12-----8-----------------------------
G ||-----------------------------------------------------
D ||-----------------------------------------------------
A ||-----------------------------------------------------
( they use some kind of effect, i dont know though)

Verse
d ||-------------------------------------------------------
A ||-------------------------------------------------------
F ||-------------------------------------------------------
C ||----------7-----7---- 7--- 9------9-----9----10--
G ||-6-6-6-6--7-----7---- 7--- 9------9-----9----10--
D ||-6-6-6-6--5-----5---- 5--- 7------7-----7-----8--
A ||-4-4-4-4------0-0---- 0-0- 0-0----0-0---0-0--0-0-
Pre Chorus
d ||-----------------------------------------------------
A ||-----------------------------------------------------
F ||-----------------------------------------------------
C ||-----------------------------------------------------
G ||-5-5-5--6-6-6-6-5------------------------------------
D ||-5-5-5--6-6-6-6-5------------------------------------
A ||-3-3-3--4-4-4-4-3------------------------------------
d ||-----------------------------------------------------
A ||-----------------------------------------------------
F ||-----------------------------------------------------
C ||-----------------------------------------------------
G ||-5-5-5--6-6-6-6----3-3-3-----------------------------
D ||-5-5-5--6-6-6-6----3-3-3-----------------------------
A ||-3-3-3--4-4-4-4-h--1-1-1-----------------------------
Chorus
d ||-----------------------------------------------------
A ||-----------------------------------------------------
F ||-----------------------------------------------------
C ||-----------------------------------------------------
G ||6- 6-6-6-6---8---9----9-9-9-9---4-----4-4-4-4-4-4---
D ||6- 6-6-6-6---8---9----9-9-9-9---4-----4-4-4-4-4-4---
A ||4- 4-4-4-4---6---7----7-7-7-7---2-----2-2-2-2-2-2---
all.....................hate..............I
g 2--------2-2-2-2-2-2---------
d-2--------2-2-2-2-2-2---------
a-0--------0-0-0-0-0-0---------
Schemeless
d ||------------------------------------------------------
A ||------------------------------------------------------
F ||------------------------------------------------------
C ||------------------------------------------------------
G ||6- 6-6-6-6---8---9----9-9-9-9---4-----4-4-4-4-4-4----
D ||6- 6-6-6-6---8---9----9-9-9-9---4-----4-4-4-4-4-4----
A ||4- 4-4-4-4---6---7----7-7-7-7---2-----2-2-2-2-2-2----
so..........................try............beat
g 2--------2-2-2-2-2-2---------
d-2--------2-2-2-2-2-2---------
a-0--------0-0-0-0-0-0---------
Screaming

Interlude (also Intro)
d ||-----------------------------------------------------
A ||-----------------------------------------------------
F ||-----------------------------------------------------
C ||-----------------------------------------------------
G ||-----------------------------------------------------
D ||-----5---5--------5----5------7-----7-----8 8 8 8----
A ||-0 0--0 0------0-0--0-0----0-0--0-0---0-0------------
Gtr 2
d ||-----------------------------------------------------
A ||-----------------------------------------------------
F ||-----------------------------------------------------
C ||-----------------------------------------------------
G ||-----------------------------------------------------
D ||-5--7-8----------------------------------------------
A ||-----------------------------------------------------
( Pick Constantly, listen to song, u will get it)
Then Verse
d ||-----------------------------------------------------------
A ||-----------------------------------------------------------
F ||-----------------------------------------------------------
C ||----------7-----7---- 7----9-----9------9----10--10-10-10-
G ||-6-6-6-6--7-----7---- 7--- 9-----9------9----10--10-10-10-
D ||-6-6-6-6--5-----5---- 5--- 7-----7------7-----8--8--8--8--
A ||-4-4-4-4-----0-0-- 0-0- 0-0----0-0----0-0---0-0-----------
( Jon does his Scat solo

d ||-----------------------------------------------------
A ||-----------------------------------------------------
F ||-----------------------------------------------------
C ||--------------9----12----8---------------------------
G ||-----------------------------------------------------
D ||-----------------------------------------------------
A ||-----------------------------------------------------
( PLay Also When jon does his scat)
Chorus
d ||-----------------------------------------------------
A ||-----------------------------------------------------
F ||-----------------------------------------------------
C ||-----------------------------------------------------
G ||6- 6-6-6-6---8---9----9-9-9-9---4-----4-4-4-4-4-4---
D ||6- 6-6-6-6---8---9----9-9-9-9---4-----4-4-4-4-4-4---
A ||4- 4-4-4-4---6---7----7-7-7-7---2-----2-2-2-2-2-2---
g 2--------2-2-2-2-2-2---------
d-2--------2-2-2-2-2-2---------
a-0--------0-0-0-0-0-0---------

Thats It koRn kids, email me if u need help, this is a rough draft. Thanks




Ваше мнение



Капча