Swallow by KoRn
Guitarist: Munky & Head
Album: Life Is Peachy
Dif.: 7
Tabbed by Twiggy5
NOTE: Tune 1/2 step down Bb Eb Ab Db Gb Bb Eb
Intro 1 (Gtr. 1) (Clean)
Ab|-3-------3-----------------------|-3-------3-----------------|
Eb|----------------------------------|---------------------------|
Bb|---1-0-1---1-0-1--1-2-1-0-1-1-1--|---1-0-1---1-0-1--1-2-1-0--|
Intro 2 (Both Guitars) (w/ dist.)
Ab|-3-------3-----------------------|-3--------3---------------------
Eb|----------------------------------|--------------------------------
Bb|---1-0-1---1-0-1--1-2-1-0-1-1-1--|---1-0-1---1-0-1--1-2-1-0-1-1-1-
Intro 2 (cont.)
Ab|-3-------3-----------------------|-3-------3-----------------|
Eb|----------------------------------|---------------------------|
Bb|---1-0-1---1-0-1--1-2-1-0-1-1-1--|---1-0-1---1-0-1--1-2-1-0-|
1st time
2nd time
Ab|-3-------3-----------------------|
Eb|---------------------------------|
Bb|---1-0-1---1-0-1--1-2-1-0-1-1-1--|
Fill 1 (Both Guitars)
Ab|------------------14--|-----(14)--------------|
Fb|------------------12--|-----(12)--------------|
Cb|------------------11--|-----(11)--------------|
Gb|------------------10--|-----(10)--------------| 2x
Verse (Gtr. 1)
Ab|-/14-------------14---|--14-----------|
Fb|-----------------12---|--12-----------|
Cb|-----------11----11---|--11-----------| 4x
Db|-------9--------------|---------------|
trem pik.
Verse (Gtr. 2)
Ab|------------------14--|-----(14)--------------|
Fb|------------------12--|-----(12)--------------|
Cb|------------------11--|-----(11)--------------|
Gb|------------------10--|-----(10)--------------| 4x
Chorus (Both Guitars) (“My sorrow...”)
Ab|-3-------3-----------------------|
Eb|---------------------------------|
Bb|---2-1-2---2-1-2--2-3-2-1-2-2-2--| 4x
Bridge (Both Guitars)
Ab|-----------6--(6)----------7------6---|
Fb|-----------4--(4)----------5------4---|
Cb|-----------3--(3)----------4------3---|
Ab|--0--0---------------------------------|
^ dip 1/2 w/ trem. bar
Fill 2 (Both Guitars)
Ab|-----------6--(6)----------7-----|
Fb|-----------4--(4)----------5-----|
Cb|-----------3--(3)----------4-----|
Ab|--0--0----------------------------|
^ dip 1/2 w/ trem. bar
Outro (Gtr. 2) (tap with edge of pik) (“Freak, punk ass...”)
d|-----26---25---24----23-22---------21--20--20----19-18--|
Outro (cont.) (Gtr. 2)
d|--------17--16--15----15-14-------14--13--12------12-11-|
Outro (Gtr. 1) (start on 3rd freak) (w/ wah)
F|------6----------------|--6-----------------|
Song Structre: -
Intro (Gtr. 1)
Intro 2 (Both Guitars)
Fill 1 (Both Guitars)
Verse (Gtr. 1)/Fill (Gtr. 2)
Chorus (Both Guitars)
Verse (Gtr. 1)/Fill (Gtr. 2)
Chorus (Both Guitars)
Bridge (Both Guitars)
Fill 2 (Both Guitars)
Intro 2 (Both Guitars)
Bass Fill
Verse (Gtr. 1)/Fill (Gtr. 2)
Chorus (Both Guitars)
Outro (Gtr. 2)
Outro (Gtr. 2)/Outro (Gtr. 1)
Fucked up song my favorite part is the end with tapping of the pik on the high d string.
If you have any comments, corrections or suggestions email me at [email protected]
===========Tabbed By: Fieldy
Korn
Swallow
Life Is Peachy
Tuning: 7 string tuned down 1 full step (sorry you need a 7 string)
Intro x2
D|------------------------------------|
A|------------------------------------|
F|------------------------------------|
C|------------------------------------|
G|-4--------4-------------------------|
D|------------------------------------|
A|---2p1h2----2p1h2--2--2h3--1h2--2-2-|
Main Riff x8
D|------------------------------------|
A|------------------------------------|
F|------------------------------------|
C|------------------------------------|
G|-4--------4-------------------------|
D|------------------------------------|
A|---2p1h2----2p1h2--2--2h3--1h2--2-2-|
Verse (munky) x4
D|-----------------------|
A|---15-------------15---|
F|---13-------------13---|
C|-----------------------|
G|-----------------------|
D|-----------------------|
A|-----------------------|
Verse (head) x4
D|-------------|
A|--/15---15---|
F|-----13---13-|
C|-------------|
G|-------------|
D|-------------|
A|-------------|
Main Riff x4
D|------------------------------------|
A|------------------------------------|
F|------------------------------------|
C|------------------------------------|
G|-4--------4-------------------------|
D|------------------------------------|
A|---2p1h2----2p1h2--2--2h3--1h2--2-2-|
Verse (munky) x2
D|-----------------------|
A|---15-------------15---|
F|---13-------------13---|
C|-----------------------|
G|-----------------------|
D|-----------------------|
A|-----------------------|
Verse (head) x4
D|-------------|
A|--/15---15---|
F|-----13---13-|
C|-------------|
G|-------------|
D|-------------|
A|-------------|
Main Riff x8
D|------------------------------------|
A|------------------------------------|
F|------------------------------------|
C|------------------------------------|
G|-4--------4-------------------------|
D|------------------------------------|
A|---2p1h2----2p1h2--2--2h3--1h2--2-2-|
Interlude x8
D|--------------------------|
A|--------------------------|
F|--------------------------|
C|--------------3/43---32-|
G|--------------2/32---21-|
D|-2-2---2-2-2--------------|
A|-0-0---0-0-0--------------|
Verse (munky) x2
D|-----------------------|
A|---15-------------15---|
F|---13-------------13---|
C|-----------------------|
G|-----------------------|
D|-----------------------|
A|-----------------------|
Verse (head) x4
D|-------------|
A|--/15---15---|
F|-----13---13-|
C|-------------|
G|-------------|
D|-------------|
A|-------------|
Main Riff x16
D|------------------------------------|
A|------------------------------------|
F|------------------------------------|
C|------------------------------------|
G|-4--------4-------------------------|
D|------------------------------------|
A|---2p1h2----2p1h2--2--2h3--1h2--2-2-|


Ваше мнение



Капча