TUNING: A, D, G, C, F, A, D

Intro/Verse:
D----10----10----10-13----10----15-12-
A-10----10----10-------10----10-------
F-------------------------------------
C-------------------------------------
G-------------------------------------
D-------------------------------------
A-------------------------------------

Chorus:
D--------------
A--------------
F-----------7^-
C--------------
G---5^---5^----
D--------------
A-3----3-------

Post Chorus:
D---------------------
A---------------------
F---------------------
C---------------------
G-5-9-8-6-5/6/5-9-8-4-
D-5-9-8-6-5/6/5-9-8-4-
A-3-7-6-4-3/4/3-7-6-2-

Bridge:
D-------------------
A-------------------
F-------------------
C-------------------
G-------------------
D-------------1-----
A-2h3-2h3-2h3---2-2-

Outro:
D-------------------
A-------------------
F-------------------
C-------------------
G-4/5-8/5-4/5-5-8-4-
D-4/5-8/5-4/5-5-8-4-
A-2/3-6/3-2/3-3-6-2-




Ваше мнение



Капча