Artist - KoRn
Song - Somebody Someone
Album - Issues
Tabbed By Jinx ([email protected])
**7 string, tuned to a step down, from 'Issues' tab book**
Intro - Riff A
Dm C B A
-----10----10--13------10----15--12-------------
--10----10----------10----10--------------------
------------------------------------------------
------------------------------------------------
------------------------------------------------
------------------------------------------------
------------------------------------------------
-----10----10--13------10----15--12-------------
--10----10----------10----10--------------------
------------------------------------------------
------------------------------------------------
------------------------------------------------
------------------------------------------------
------------------------------------------------
Riff B, play 4 times (two bars below count as ONE)
D5....
------------------------------------------------
------------------------------------------------
------------------------------------------------
-------------BEND--------------------BEND-------
------------/----------------------/---------7
------------5---(5)----------------5---(5)------
--3--3---3-----------3----3----3------------3---
------------------------------------------------
------------------------------------------------
------------------------------------------------
-------------BEND--------------------BEND-------
------------/----------------------/---------7
------------5---(5)----------------5---(5)------
--3--3---3-----------3----3----3------------3---
Riff A (Verse)
Dm C B A
------------------------------------------------
------------------------------------------------
------------------------------------------------
-------------BEND--------------------BEND-------
------------/----------------------/----------
------------5---(5)----------------5---(5)------
--3--3---3-----------3----3----3----------------
Giving you this and that, I can't stand to let you in
giving, gaining nothing back.
Riff C
Dm C B A
I'm just watching you, and I don't know what to do
Its all just related to, all the things I do
Dm C B A
Feeling like a fool inside, feeling all the love you hide
Feeling like a fool inside, seeing all the things you try
Dm C B A
Thought you were a friend, seems it never ends
I am nothing____________
Pre-Chorus
D5.....
I need somebody_____ someone
Chorus
D5 F5 E5 D5 E5 D5 F#5 F5 C#5
Can somebody help me____all I need is to be____
------------------------------------------------
------------------------------------------------
------------------------------------------------
--4---8-------7---5------4-/5-/4----8---7---3---
--5---9-------8---6------5-/6-/5----9---8---4---
------------------------------------------------
------------------------------------------------
D5 F5 E5 D5 E5 D5 F#5 F5 C#5
_________No, do it for me ______
Interlude - Played faster = 104b
------------------------------------------------
------------------------------------------------
------------------------------------------------
------------------------------------------------
------------------------------------------------
-------------1-----------------------1----------
-2--3--3--3-----3--3--3--2--3--3--3-----3--3--3-
------------------------------------------------
------------------------------------------------
------------------------------------------------
------------------------------------------------
------------------------------------------------
-------------1-----------------1--1--------1--1-
-2--3--3--3-----3--3--3--2--2--------2--2-------
------------------------------------------------
------------------------------------------------
------------------------------------------------
------------------------------------------------
------------------------------------------------
-------------1-----------------------1----------
-2--3--3--3-----3--3--3--2--3--3--3-----3--3--3-
------------------------------------------------
------------------------------------------------
------------------------------------------------
------------------------------------------------
------------------------------------------------
-------------1-----------------1--1--------1--1-
-2--3--3--3-----3--3--3--2--2--------2--2-------
Bridge
Dm D Dm
Look, I sign, I need someone inside to help me
D Dm D
out with what? I'm trying, I'm crying, I'm frying
Dm D
I'm dying, I'm dying, I'm dying, I'm dying_______
------------------------------------------------
------------------------------------------------
------------------------------------------------
------------------------------------------------
------------------------------------------------
-------------1-----------------------1----------
-2--3--3--3-----3--3--3--2--3--3--3-----3--3----
------------------------------------------------
------------------------------------------------
------------------------------------------------
------------------------------------------------
------------------------------------------------
-------------1-----------1----------------------
-2--3--3--3-----3--3--3--2----------------------
Slower, Outro
D5 F5 D5 F5
------------------------------------------------
--------2--------------------2------------------
--3--4-----4-----3--4--4--4------3--------------
------------------------------------------------
------------------------------------------------
------------------------------------------------
------------------------------------------------
------------------------------------------------
--------2--------------------2------------------
--3--4-----4-----3--4--4--4------3--------------
------------------------------------------------
------------------------------------------------
------------------------------------------------
------------------------------------------------
Part 2
------------------------------------------------
------------------------------------------------
------------------------------------------------
------------------------------------------------
--------------------------------3---------------
---------1----------------------1---------------
-2--3-------3---2---3---3---3--------2----------
------------------------------------------------
------------------------------------------------
------------------------------------------------
------------------------------------------------
------------------------------3-----------------
---------1--------------------1-----------------
-2--3--------3----2--3--3--3------2-------------
D5 F5 D5 F5
I need somebody_____________some
D5 F5 D5 F5 D5 F5
body, someone_____________ I need some
D5 F5 D5 F5 D5 F5
body, somebody, someone_______________________
------------------------------------------------
------------------------------------------------
---------2-------------------2------------------
--3--4------4----3--4--4--4-------3-------------
------------------------------------------------
------------------------------------------------
------------------------------------------------
------------------------------------------------
------------------------------------------------
---------2--------------------2----1/2----------
--3--4------4-----3--4--4--4-------2/3----------
------------------------------------------------
------------------------------------------------
------------------------------------------------
------------------------------------------------
------------------------------------------------
------------------------------------------------
------------------------------------------------
------------------------------------------------
-----------1-------------------3----------------
--2--3--------3----2--3--3--3--1--2-------------
------------------------------------------------
------------------------------------------------
------------------------------------------------
------------------------------------------------
------------------------------------------------
--------1-------------------3-------3-----------
--2--3-----3----2--3--3--3--1--2----1-----------




Ваше мнение



Капча