hey this song is one of my personal favorites of the band.
alot of people confuse the chorus though so ill give u my shot on the song.
Key- ~/~/~/~= slide slowly while let ringing
/=slide up
=slide down
{}= move whammy bar fastly
Intro- Both Guitars
----------------------------
----------------------------
----------------------------
---------------------------- Repeat many times
-----5-5--------5-5--5-5----
-----5-5--------5-5--5-5----
-----3-3--------3-3--3-3----
Intro part 2- Both Guitars
---------------------------
-----7~/~/~/~9-------------
-----6~/~/~/~8-------------
-----5~/~/~/~7-------------
---------------------------
---------------------------
---------------------------
Verse- Both
---------------------------
---------------------------
-------7~/~/~9-------------
-------6~/~/~8-------------
--5----5~/~/~7-------------
--5------------------------
--3------------------------
Chorus- Head
-------------------------
-------------------------
-------------------------
-------------------------
----5-5--8///7///6///5---
----5-5--8///7///6///5---
----3-3--6///5///4///3---
Chorus- Munkey (he uses the weirdest effect ive ever heard
but if u listen close yull hear it)
-------------------------
-------------------------
-------------------------
-------------------------
-------------------------
---5-6-5-6--7--4-5-4-5---
-------------------------
Chorus- Over lap guitar 3 (u can use this to replace munkys if you want)
---13~~~~~~~--12~~~~~~------
----------------------------
---11~~~~~~~--10~~~~~~------
----------------------------
----------------------------
----------------------------
----------------------------
Bridge Part 1- Head
----------------------------------------
----------------------------------------
----------------------------------------
----------------------------------------
----------------------------------------
-------4--------4------------4----------
--3-33---333-33---333/13-33---333------
Bridge Part 2(heavy)- Both Guitars
-------------------------------------
-------------------------------------
-------------------------------------
-------------------------------------
----5-5-6-55--5-5-6-55---------------
----5-5-6-55--5-5-6-55---------------
----3-3-4-33--3-3-4-33---------------
Werid Chorus- Both
------------------------------
------------------------------
------------------------------
------------------------------
--5-55432------------------
--5-55432------------------
--5-3321------------------
Verse- Both Guitars
---------------------------
---------------------------
-------7~/~/~9-------------
-------6~/~/~8-------------
--5----5~/~/~7-------------
--5------------------------
--3------------------------
Then- Both
------------------------------------
------------------------------------
-------7~/~/~9----------------------
-------6~/~/~8----------------------
--5----5~/~/~7--------6-5-432~----
--5-------------------6-5-432~----
--3-------------------4-3-21~----
Chorus 1 last time- Head
-------------------------
-------------------------
-------------------------
-------------------------
----5-5--8///7///6///5---
----5-5--8///7///6///5---
----3-3--6///5///4///3---
Chorus- Munkey (he uses the weirdest effect ive ever heard
but if u listen close yull hear it)
-------------------------
-------------------------
-------------------------
-------------------------
-------------------------
---5-6-5-6--7--4-5-4-5---
-------------------------
Chorus- Over lap guitar 3 (u can use this to replace munkys if you want)
---13~~~~~~~--12~~~~~~------
----------------------------
---11~~~~~~~--10~~~~~~------
----------------------------
----------------------------
----------------------------
----------------------------
Outro- Head
-----------17{}--13{}-------
----------------------------
-----------15{}--11{}-------
----------------------------
----------------------------
----------------------------
----------------------------




Ваше мнение



Капча