WWW.EXTREMETABS.COM
URL: www.extremetabs.com
EMAIL: [email protected]
SONG: Seed
BAND: Korn
ALBUM: Follow The Leader
TRANSCRIBED BY: Daniel Lennon
DATE: Unknown
TUNING: tune your guitar down one full step (A,D,G,C,F,A,D)
RIFF 1:
D|-----------------------------------------------|
A|-----------------------------------------------|
F|-----------------------------------------------|
C|-----------------------------------------------|
G|--------13--13--12--13-------------10-10--9-10-|
D|-2--2---11--11--10--11----2--2-----8---8--7--8-|
A|-0--0---------------------0--0-----------------|
RIFF 2:
D|--------------------------|
A|--------------------------|
F|--------------------------|
C|--------------------------|
G|--4--3--6--3--4--3--6--4--|
D|--4--3--6--3--4--3--6--4--|
A|--2--1--4--1--2--1--4--2--|




Ваше мнение



Капча