Date: Tue, 3 Sep 1996 19:48:36 -0500 (CDT)
From: Nick Lee Grant
TAB:KoRn
SONG:Sean Olson
This is song number 11 on the crow city of angels.
Tune all strings down to a D
intro
--0-0-0-0-0-0-0-0-0-0-0-0-0-0-0-0-0
--5-5-5-5-5-5-5-6-6-4-4-4-4-4-0-0-0
-----------------------------------
-----------------------------------
-----------------------------------
-----------------------------------
verse
---------------
---------------
---------------
-----9-----8-10 repeat
-----8-----9-10
-0-0---0-0---8
pm| pm|
chorus
----------------------------
----------------------------
----------------------------
----------------------------
-12-12-13-11-11-11----------
-10-10-11-9--9--9--9-10-11-9
i for got the rest if you want it e-mail me @
[email protected]




Ваше мнение



Капча