Downloaded from WWW.KORNWEB.COM

Proud - Bass Tab
1 Transcriptions

--------------------------------------------------------------

Transcribed By: Exodus Garcia [email protected]

NOTE: 5-string bass tuned down one whole step.

VERSE
F||-------------------------------------------||
C||-------------------------------------------|| strum with
G||-------------------------------------------|| your finger
D||-------------------------------------------|| as well.
A||--0h2---0h2---0h2---0h2---0h2-----h3---h3--||

FILL 1
F||-------------||
C||-------------||
G||-------------||
D||-------------||
A||--5---7---4--||

CHORUS
F||-----------------||
C||-----------------||
G||-----------------||
D||-----------------||
A||--6---5/3---4/1--||

FILL 2
F||-------------||
C||-------------||
G||-------------||
D||-------------||
A||--3---5---7--||

VERSE
F||-------------------------------------------||
C||-------------------------------------------|| strum with
G||-------------------------------------------|| your finger
D||-------------------------------------------|| as well.
A||--0h2---0h2---0h2---0h2---0h2-----h3---h3--||

CHORUS
F||-------------------||
C||-------------------||
G||-------------------||
D||-------------------||
A||---6---5/3---4/1---||

BRIDGE
F||-------------------||
C||-------------------|| On this part just bang
G||-------------------|| the shit out of the
D||-------------------|| string and strum with
A||---2h---4h---5h----|| your finger as well.

VERSE
F||-------------------------------------------||
C||-------------------------------------------|| strum with
G||-------------------------------------------|| your finger
D||-------------------------------------------|| as well.
A||--0h2---0h2---0h2---0h2---0h2-----h3---h3--||

CHORUS
F||-----------------||
C||-----------------||
G||-----------------||
D||-----------------||
A||--6---5/3---4/1--||

OUTRO
F||------------------------------------||
C||------------------------------------||
G||------------------------------------||
D||------------------------------------||
A||---6/45---6/5/4---6/4---6------7---||


Ваше мнение



Капча