WWW.EXTREMETABS.COM
URL: www.extremetabs.com
EMAIL: [email protected]
SONG: Pretty
BAND: Korn
ALBUM: Follow The Leader
TRANSCRIBED BY: Nick Di Claudio
DATE: Unknown
TUNING: tune your guitar down one full step (A,D,G,C,F,A,D)
INTRO/BRIDGE RIFF:
D|------------|
A|------------|
F|------------|
C|--8--8-8-8--|
G|--9--9-9-9--|
D|--9--9-9-9--|
A|--7--7-7-7--|
RIFF 2:
D|------------------------|
A|------------------------|
F|------------------------|
C|------------------------|
G|-------9-7--------9-10--|
D|-----9----------9-------|
A|--7-7-------7-7---------|
RIFF 3:
D|------------|
A|------------|
F|------------|
C|-2--4-------|
G|-2--4--5-3--|
D|-0--2--5-3--|
A|-------3-1--|




Ваше мнение



Капча