----------------------------------------------------------------------------
KoRn - Play Me
----------------------------------------------------------------------------

artist: KoRn ( feat. Nas )
song: play me
album: take a look in the mirror
tabbed by: Cesar

tuning: standard (E B G D A E) 6 string, they use a pedal in the intro but i
don't know what it is, but if u knew, it sounds cool and freaky, but i'm not sure
about this tab, i tried.

/ = slide
h = hammer on

intro, they use a some kind of pedal i don't know of
E|--------------------------------------------------------------------------
B|--------------------------------------------------------------------------
G|--------------------------..2x then..-------------------------------------
D|-5-5-6-6--5-5-6-6--5-5-6-6-----------5/6--5/7-7-6-------------------------
A|-5-5-6-6--5-5-6-6--5-5-6-6-----------5/6--5/7-7-6-------------------------
E|-5-5-6-6--5-5-6-6--5-5-6-6-----------5/6--5/7-7-6-------------------------

intro, 2x times, with distortion
E|--------------------------------------------------------------------------
B|--------------------------------------------------------------------------
G|--------------------------------------------------------------------------
D|-6-6-7-5--5-5h6-5----6-6-7-5--5-5h6-5-------------------------------------
A|-6-6-7-5--5-5h6-5----6-6-7-5--5-5h6-5-------------------------------------
E|-6-6-7-5--5-5h6-5----6-6-7-5--5-5h6-5-------------------------------------

verse
E|--------------------------------------------------------------------------
B|--------------------------------------------------------------------------
G|-----------------------..7x then..---------..1x going into the chorus..---
D|-5--5--6-5----5--5--6-5-----------5-6-6-6-6-------------------------------
A|-5--5--6-5----5--5--6-5-----------5-6-6-6-6-------------------------------
E|-5--5--6-5----5--5--6-5-----------5-6-6-6-6-------------------------------

chorus
E|--------------------------------------------------------------------------
B|--------------------------------------------------------------------------
G|--------------------------------------------------------------------------
D|-5-5--6-6--7-7-5----------------------------------------------------------
A|-5-5--6-6--7-7-5----------------------------------------------------------
E|-5-5--6-6--7-7-5----------------------------------------------------------

THATS ALL I KNOW




Ваше мнение



Капча