TUNING: A, D, G, C, F, A, D (low to high)

Intro/Verse:
D------15-14----
A---------------
F-12-9-------11-
C---------------
G---------------
D---------------
A---------------

Chorus (Head):
D------------15-15-15-15-14-
A-8-8-8-8-7-----------------
F------------12-12-12-12-11-
C-5-5-5-5-4-----------------
G---------------------------
D---------------------------
A---------------------------

Bridge/Outro:
D---------------------------
A-0-5-7-3-7-8-0-5-7-3-8-7-0-
F---------------------------
C---------------------------
G---------------------------
D---------------------------
A---------------------------




Ваше мнение



Капча