band-korn
song-no way
Intro:
d|------/15-12-14----|-----/15-12-14---------|
a|-8--------------7-|-8------------------7-|
F|---9---------------|---9-------------------|
C|-------------------|-----------------------| (Guitar1)
G|-------------------|-----------------------|
D|-------------------|-----------------------|
A|-------------------|-----------------------|
Chorus:
d|---------------------------|---------------------------|
a|---------------------------|---------------------------|
F|-------------1112111211----|-------------1112111211----|
C|-------------9-9-9-9-9-----|-------------9-9-9-9-9-----| (Guitar1)
G|-10101010-9--9-9-9-9-9-----|-10101010-9--9-9-9-9-9-----|
D|-7-7-7-7--7----------------|-7-7-7-7--7----------------|
A|-------------------------0-|-------------------------0-|
d|----------------------------|--------------------------|
a|--------------15151515-14---|------------15151515-14---|
F|----------------------------|--------------------------|
C|--5555-4------12121212-11---|--5555-4----12121212-11---| (Guitar2)
G|--5555-4--------------------|--5555-4------------------|
D|--3333-2--------------------|--3333-2------------------|
A|--------------------------0-|------------------------0-|
Verse:
d|------/15-12-14----|-----/15-12-14---------|
a|-8--------------7-|-8--------------7-|
F|---9---------------|---9-------------------|
C|-------------------|-----------------------| (Guitar1)
G|-------------------|-----------------------|
D|-------------------|-----------------------|
A|-------------------|-----------------------|
Chorus:
d|---------------------------|---------------------------|
a|---------------------------|---------------------------|
F|-------------1112111211----|-------------1112111211----|
C|-------------9-9-9-9-9-----|-------------9-9-9-9-9-----| (Guitar1)
G|-10101010-9--9-9-9-9-9-----|-10101010-9--9-9-9-9-9-----|
D|-7-7-7-7--7----------------|-7-7-7-7--7----------------|
A|-------------------------0-|-------------------------0-|
d|----------------------------|--------------------------|
a|--------------15151515-14---|------------15151515-14---|
F|----------------------------|--------------------------|
C|--5555-4------12121212-11---|--5555-4----12121212-11---| (Guitar2)
G|--5555-4--------------------|--5555-4------------------|
D|--3333-2--------------------|--3333-2------------------|
A|--------------------------0-|------------------------0-|
Verse:
d|------/15-12-14----|-----/15-12-14---------|
a|-8--------------7-|-8--------------7-|
F|---9---------------|---9-------------------|
C|-------------------|-----------------------| (Guitar1)
G|-------------------|-----------------------|
D|-------------------|-----------------------|
A|-------------------|-----------------------|
Chorus:
d|---------------------------|---------------------------|
a|---------------------------|---------------------------|
F|-------------1112111211----|-------------1112111211----|
C|-------------9-9-9-9-9-----|-------------9-9-9-9-9-----| (Guitar1)
G|-10101010-9--9-9-9-9-9-----|-10101010-9--9-9-9-9-9-----|
D|-7-7-7-7--7----------------|-7-7-7-7--7----------------|
A|-------------------------0-|-------------------------0-|
d|----------------------------|--------------------------|
a|--------------15151515-14---|------------15151515-14---|
F|----------------------------|--------------------------|
C|--5555-4------12121212-11---|--5555-4----12121212-11---| (Guitar2)
G|--5555-4--------------------|--5555-4------------------|
D|--3333-2--------------------|--3333-2------------------|
A|--------------------------0-|------------------------0-|
Bridge1:
d|------------------------------------------|
a|------------------------------------------|
F|-4---9-11-7---12-11--4---9-11-7---11-12-|
C|------------------------------------------| (Guitar2)
G|------------------------------------------|
D|------------------------------------------|
A|------------------------------------------|
d|-0-XXXXXXXXXXXXXXXXXXX-|
a|-3^XXXXXXXXXXXXXXXXXXX-|
F|-----------------------|
C|-----------------------| (Guitar1)
G|-----------------------|
D|-----------------------|
A|-----------------------|
Verse:
d|------/15-12-14----|-----/15-12-14---------|
a|-8--------------7-|-8--------------7-|
F|---9---------------|---9-------------------|
C|-------------------|-----------------------| (Guitar1)
G|-------------------|-----------------------| Wuth some effect...
D|-------------------|-----------------------|
A|-------------------|-----------------------|
Chorus:
d|---------------------------|---------------------------|
a|---------------------------|---------------------------|
F|-------------1112111211----|-------------1112111211----|
C|-------------9-9-9-9-9-----|-------------9-9-9-9-9-----| (Guitar1)
G|-10101010-9--9-9-9-9-9-----|-10101010-9--9-9-9-9-9-----|
D|-7-7-7-7--7----------------|-7-7-7-7--7----------------|
A|-------------------------0-|-------------------------0-|
d|----------------------------|--------------------------|
a|--------------15151515-14---|------------15151515-14---|
F|----------------------------|--------------------------|
C|--5555-4------12121212-11---|--5555-4----12121212-11---| (Guitar2)
G|--5555-4--------------------|--5555-4------------------|
D|--3333-2--------------------|--3333-2------------------|
A|--------------------------0-|------------------------0-|
Outro:
d|------------------------------------------|
a|------------------------------------------|
F|-4---9-11-7---12-11--4---9-11-7---11-12-|
C|------------------------------------------| (Guitar2)
G|------------------------------------------|
D|------------------------------------------|
A|------------------------------------------|




Ваше мнение



Капча