KoRn - No One's There
- Untouchables Tabbed by David Sorenson ([email protected])
Tuning : 7 String Tuned Low to High (A D G C F a d)
Intro:(Guitar1)
d|----------------------------------|
a|----------------------------------|
F|----------------------------------|
C|----------------------------------|
G|----------------------------------|
D|----------------------------------|
A|-0---5---1---6---0---5---8-7-5--7-|

Pre-Chorus:(Guitar1)
d|----------------------------|
a|----------------------------|
F|----------------------------|
C|----------------------------|
G|-2--22-2-22-2-22-2--4-5-4-3-|
D|-2--22-2-22-2-22-2--4-5-4-3-|
A|-0--00-0-00-0-00-0--2-3-2-1-|

Chorus:(Guitar1)
d|-------------|
a|-------------|
F|-------------|
C|-------------|
G|-5~--9~--10-7|
D|-5~--9~--10-7|
A|-3~--7~--8--5|




Ваше мнение



Капча