My Gift To You - Korn
2 Transcriptions
Transcribed by : James frazzetto ([email protected])
7 string tuned whole step down
Intro w/bagpipes
||---------------|---------------|---------------|---------------|
||---------------|---------------|---------------|---------------|
||---------------|---------------|---------------|---------------|
||---------------|---------------|---------------|---------------|
||--7------------|---------------|---------------|---------8--8--|
||--7------------|---------------|---------------|---------8--8--|
||--5------------|---------------|---------------|---------6--6--|
Fill 1
||------------------------
||------------------------
||------------------------
||------------------------
||--4-4-4--4-4-4--4-4-4-4-
||--4-4-4--4-4-4--4-4-4-4-
||--2-2-2--2-2-2--2-2-2-2-
Riff 1
||---------------|------------|---------------|------------|
||---------------|------------|---------------|------------|
||---------------|------------|---------------|------------|
||---------------|------------|---------------|------------|
||--4-4-4--4-4-4-|---4-4-4-4--|--4-4-4--4-4-4-|---4-4-4-3--|
||--4-4-4--4-4-4-|---4-4-4-4--|--4-4-4--4-4-4-|---4-4-4-3--|
||--2-2-2--2-2-2-|---2-2-2-2--|--2-2-2--2-2-2-|---2-2-2-1--|
Fill 2
||-----------
||-----------
||-----------
||-----------
||--4-4-3-2--
||--4-4-3-2--
||--2-2-1-0--
Chorus Gtr.1
||------------------------|--------------------------
||----------0-----------0-|----------0------------0--
||------4-----------4-----|------4----------4--------
||--2-----------2---------|--3-----------0-----3-----
||------------------------|--------------------------
||------------------------|--------------------------
||------------------------|--------------------------
Chorus Gtr.2
||------------------------|--------------------------
||------------------------|--------------------------
||------------------------|--------------------------
||------------------------|--------------------------
||--7---------------------|--8-----------5-----8-----
||--7---------------------|--8-----------5-----8-----
||--5---------------------|--6-----------3-----6-----
Interlude Gtr.1 clean tone w/tremolo effect
||-------------------|-----------------------
||-------------------|-----------------------
||-------------------|-----------------------
||-------4--------4--|-------4------4-----4--
||-------------------|-----------------------
||--2---------2------|--3--------0-----3-----
||-------------------|-----------------------
Interlude Gtr.2 *-harmonics
||--*7-----------|---------------|
||---------------|------------*7-|
||---------------|--------*5-----|
||---------------|---------------|
||---------------|---------------|
||---------------|---------------|
||---------------|---------------|
Fill 1
||---------------|-----------*12-|
||--*7-----------|---------------|
||---------------|---------------|
||---------------|---------------|
||---------------|---------------|
||---------------|---------------|
||---------------|---------------|
Riff 10 Gtr.1 vibrato w/bar throughout
||---------------|---------------|--------------|-------------|
||---------------|---------------|--------------|-------------|
||--13-----------|--14-----11----|--13----------|--14----/18--|
||---x-----------|---x------x----|---x----------|---x------x--|
||--11-----------|--12------9----|--11----------|--12----/16--|
||---------------|---------------|--------------|-------------|
||---------------|---------------|--------------|-------------|
Riff 10 Gtr.2
||---------------|---------------|--------------|-------------|
||---------------|---------------|--------------|-------------|
||---------------|---------------|--------------|-------------|
||---------------|---------------|--------------|-------------|
||--7------------|--8-----5--5-8-|--7-----------|--8----5-5-8-|
||--7------------|--8-----5--5-8-|--7-----------|--8----5-5-8-|
||--5------------|--6-----3--3-6-|--5-----------|--6----3-3-6-|
Riff 11 Gtr.1 vibrato w/bar
||---------------|---------------|--------------|-------------|
||---------------|---------------|--------------|-------------|
||--10~~~~~~~~~--|---------------|--10~~~~~~~~--|-------------|
||---x-----------|---------------|---x----------|-------------|
||---8~~~~~~~~~--|---------------|---8~~~~~~~~--|-------------|
||---------------|---------------|--------------|-------------|
||---------------|---------------|--------------|-------------|
Riff 11 Gtr.2
||---------------|---------------|--------------|-------------|
||---------------|---------------|--------------|-------------|
||---------------|---------------|--------------|-------------|
||--8-----8-8--8-|-9-----6-6-9-9-|--8----8-8--8-|-9---6-6-9-9-|
||--7-----7-7--7-|-8-----5-5-8-8-|--7----7-7--7-|-8---5-5-8-8-|
||--6-----6-6--6-|-7-----4-4-7-7-|--6----6-6--6-|-7---4-4-7-7-|
||--5-----5-5--5-|-6-----3-3-6-6-|--5----5-5--5-|-6---3-3-6-6-|
Fill 3
||---------------|-----------
||---------------|-----------
||---------------|-----------
||---------------|-----------
||--2-2-2--2-2-2-|---2-2-2-3-
||--2-2-2--2-2-2-|---2-2-2-3-
||--0-0-0--0-0-0-|---0-0-0-1-
Fill 4
||-------------------------|------------------
||----------0-----------0--|--0---------------
||------4-----------4------|--4---------------
||--2-----------2----------|--3---------------
||-------------------------|------------------
||-------------------------|------------------
||-------------------------|------------------
-------------------------------------------------------------------------------------
Transcribed by : ?
6 String Tuned to (A D G C E A)
This transcription is for rythem guitar. Lead requires a 6 string.
Intro
|| -------------------------------------
|| -------------------------------------
|| ---2-------333------2----------------
|| ---2-------333------2----------------
|| ---0-------111------0----------------
|| -------------------------------------
Verse
Those are the notes. Listen to the song to get the rhythm
|| -------------------------------
|| -------------------------------
|| -------------------------------
|| 444--444-444-----4443----------
|| 444--444-444-----4443----------
|| 222--222-222-----2221----------
Refrain
|| ----------------------------
|| ----------------------------
|| ----------------------------
|| ---7---8--5--87-------------
|| ---7---8--5--87-------------
|| ---5---6--3--65-------------
Go back to the verse
Then back to the refrain
Then to the little breakdown part
Breakdown Part (This part is played with some heavy Chorus)
|| -------------------------------
|| -------------------------------
|| -------------------------------
|| -------------------------------
|| ---0-0--0-0-0-0----------------
|| ---5-5--6-3-6-5----------------
Then go the refrain, then continue to play the refrain but just go crazy
Then the verse Then back to the refrain, and its over.




Ваше мнение



Капча