Mr Rogers - Korn
2 Transcriptions
Transcribed By: David Noweta ([email protected])
7-string guitar tuned down a full step
Intro (all open notes ar palm muted on this riff)
D-----------------------------------------------------------------
A-----------------------------------------------------------------
F-----------------------------------------------------------------
C-----------------------------------------------------------------
G-----------------------------------------------------------------
D-----7-----7---7-----7-----7---8-----8-----8---8-----8-----8---7-
A-0-0---0-0---0---0-0---0-0---0---0-0---0-0---0---0-0---0-0---0---
Intro 2
D-----------------------------------------------------------
A------------------------------------------------------------
F------------------------------------------------------------
C----------1413-----109------------------------------------
G------------------------------------------------------------
D----------1211------87------------7/8-8-8-----------------
A-0-0-0-0---------0----------0-0-0---5/6-6-6-----------------
Pre-verse
D-----------------------------------------------------------------------------
A----------------------11-11-11--11-11-11------11-11-11-11-11-11-11-11--------
F-----------------------------------------------------------------------------
C-----------------------------------------------------------------------------
G-9---------------------------------------------------------------------------
D-8---------------------------------------------------------------------------
A-----------------------------------------------------------------------------
Verse Bass arranged for Guitar
D---------------------------------- D-------------------------------------------------------
A------------7---6-----6^0--------- A-------------------------------------------------------
F----4------------------------4---- F-------------------------------------------------------
C---------------------------------- C-------------------------------------------------------
G---------------------------------- G-------------------------------------------------------
D---------------------------------- D-7-7-7-7---7-7-7-7-------------------------------------
A---------------------------------- A--------------------7-7-7-7---6-6-6-6--0-0-6-6--6-6-0-0
be my neibor part... (guitar 1)
D-------------------------------------------------------------------
A------------------------------------0---------------0--------------
F------------------------------------0---------------0--------------
C-------------------------------------------------------------------
G-------------------------------------------------------------------
D-3----------3-----------9------8-8-----8------8-8------8-----8-----
A-1^0-0-0----1^0-0-0-----7------6-6-----6------6-6------6-----6-----be my neighbour part ....(guitar 2)
D--12-----------------11------------------------11--------------------
A-------------10----------------------------------------------------
F--------------------------------4-----------------------------------
C-------------------------------------------------------------------
G-------------------------------------------------------------------
D-------------------------------------------------------------------
A-------------------------------------------------------------------
Bridge
D--------------------------7-------|----------------------7------------
A---------7---------6--------------|----7----------6----------6--------
F-4--------------------------------|-4----------------------------4----
C----------------------------------|-----------------------------------
G----------------------------------|-----------------------------------
D----------------------------------|-----------------------------------
A----------------------------------|-----------------------------------
I hate you part..........
D---------------------------------------------
A---------------------------------------------
F---------------------------------------------
C---------------------------------------------
G---------------------------------------------
D-2-2-----2---2-2----2-x-x-8------------------
A-0-0-----0---0-0----0-x-x-6------------------
--------------------------------------------------------------
Transcribed By: Andy Miles [email protected]
7-string guitar tuned down a full step
Intro
---------------------
---------------------
---------------------
---------------------Palm mute
---------------------
---------------------
-0-0-2--0--0-0-2-0-2-
Intro 2
---------------------------
---------------------------
---------------------------
---------------------------
---------------------------
-2--2-2--8-2-2--2-2-7-8-9-
-0--0-0--6-0-0--0-0-5-6-7-
Pre-verse
-------------------x--x-x-x-x-x------
--------------x----------------------
-----------------x-------------------
-9-----------------------------------
-x-----------------------------------
-7-----------------------------------
-0-----------------------------------
Verse
-----------------------------
-----------------------------
---------11---10----10--11---
-9---------------------------
-----------------------------
-----------------------------
-----------------------------
be my neibor part...
-----------------------
-----------------------
-----------------------
-----------------------
-2-2-222--2--2-2-222-2-
-2-2-222--2--2-2-222-2-
-0-0-000--0--0-0-000-0-
Bridge-same as the verse with weird effect over it.
Bridge 2-guitar 1
-----------------
-----------------
-----------------
-----------------
-----------------
-2---2-2--2---3-
-0---0-0--0---1-
Bridge 2-guitar 2
--------------------------------
-16~~~~~~~~~~~~~-15~~~~~~~~~~~~-
--------------------------------
--------------------------------
--------------------------------
--------------------------------
--------------------------------




Ваше мнение



Капча