Make Me Bad - Guitar Tab
1 Transcription
--------------------------------------------------------------
Transcribed By: RipHead ([email protected])
Tuned Down One Half Whole Step (ADGCFAd)
(Intro - Brian)
d||---21-----22---21-------------------||
A||-----19-------------19--------------||
F||------------------------------------||
C||------------------------------------||
G||------------------------------------||
D||------------------------------------||
A||------------------------------------||
(Clean)
(Intro - Brian & Munky)
d||----------------------------||
A||----------------------------||
F||-------------5--------------||
C||-5/45---4---5--------------||
G||-3/23---2---3--------------||
D||----------------------------|| (Distortion)
A||-------0---0----------------||
(Verse)
(Brian)
2x 2x
d||---21-----22---21--------||---21-----21---22--------||
A||-----19-------------19---||-----19-------------19---||
F||-------------------------||-------------------------||
C||-------------------------||-------------------------||
G||-------------------------||-------------------------||
D||-------------------------||-------------------------||
A||-------------------------||-------------------------||
(Munky)
3x 1x
d||------------------------------------------||--------------------------||
A||------------------------------------------||--------------------------||
F||---------------------------9-----7---9----||--------------------------||
C||---------9------7----10-------------------||--------9------7----10----||
G||-----9------------------------------------||-----9--------------------||
D||--7---------------------------------------||--7-----------------------||
A||------------------------------------------||--------------------------||
(Both Guitars Clean)
(Chorus - Brian & Munky)
d||-------------------------------------------------------------------------------------------------||
A||--^-^-^-^-^-^-^-^-^-^-^-^--^-^-^-^------^-^-^-^-^-^-^-^-^-^-^--^-^-^--^-^------------------------||
F||--4-4-4-4-4-4-4-4-4-4-4-4-4-4-4-4-4-4-4-4-4-4-4-4-4-4-4-4-4-4-4-4-4-4-2-2-2-2--------------------||
C||--2----------3-----2------------------------2-----------3-----2----------------------------------||
G||--2----------3-----2-----3--------2---------2-----------3-----2-----3---------2------------------||
D||--0----------1-----0-----3--------2---------0-----------1-----0-----3---------2------------------||
A||-------------------------1--------0---------------------------------1---------0------------------||
(One of the guitarist, i don`t know who, plays F4^ with the Flanger, and second riffs w/Distortion)
(fill) (Brian) (Munky)
d||----------------------||-----------------------||
A||----------------------||-----------------------||
F||---5------------------||---4-5-----------------||
C||---5------------------||---4-5-----------------||
G||---3------------------||---2-3-----------------||
D||----------------------||-----------------------||
A||----------------------||-----------------------||




Ваше мнение



Капча