TUNING: A, D, G, C, F, A, D

Intro/Verse:
D-14----15-14----
A----12-------12-
F----------------
C----------------
G----------------
D----------------
A----------------

Main Riff Thing:
D---------------
A---------------
F-5/4-5/4---4-5-
C---------------
G-3/2-3/2---2-3-
D---------------
A---------0-----

Chorus:
D---------------
A---------------
F-----------3---
C-2-3-2-----3-2-
G-2-3-2-3-2-1-2-
D-0-1-0-3-2---0-
A-------1-0-----

Bridge:
D-8-
A-8-
F-5-
C---
G---
D---
A---




Ваше мнение



Капча