Korn, Make Me Bad.
Tabbed by Myke, [email protected]

KORN
MAKE ME BAD
Standard Tuning
Intro:
|--13-----13-------------|
|---17---------17--------|
|----14--------------14--|
|------------------------|
|------------------------|
|------------------------|
Pre-Verse (Guitar 1):
|--------------------------|
|-------------------5-5-5--|
|-------------------3-3-3--|
|--3-2-3-2---2------4-4-4--|
|----------0---0-----------|
|--------------------------|
Pre-Verse (Guitar 2):
|------------------------|
|------------------------|
|-----------------9-9-9--|
|-----------------8-8-8--|
|--8-7-8-7-0-7-0--9-9-9--|
|------------------------|
Verse (Guitar 1):
|--13-----13-------------|
|---17---------17--------|
|----14--------------14--|
|------------------------|
|------------------------|
|------------------------|
Verse (Guitar 2):
|----------|
|----------|
|----------|
|--5----4--|
|--5----4--|
|--3----2--|
Chorus Chords (Both Guitars):
|--x----x----x----x----x--|
|--x----x----x----1----x--|
|--7----7----7----3----x--|
|--7----7----7----3----x--|
|--5----6----5----1----0--|
|--x----x----x----x----x--| (x4)
Whats in here is correct.
No question about it, you
Just have to get the timing
Sorted.
[email protected]




Ваше мнение



Капча