KoRn: Lowrider
Album: Life is Peachy
Transcribed by: glbassman

VERSE
G-----------1---1--1--3---------------------------
D--------1-3--3---3-------------------------------
A--1-1-4------------------------------------------
E-------------------------------------------------

FILL 1
G--3-3-1------------------------------------------
D--------3-2-1------------------------------------
A--------------4-1-0---------1--------------------
E--------------------4-1-0-1----------------------

FILL 2

G------3-2-1--------------------------------------
D--0-1-------3-2-1-----0--------------------------
A--------------------1---1-0----------------------
E------------------4---------4--------------------

Try this! It should be right. Any questions
E-Mail me at [email protected]




Ваше мнение



Капча