im not sure of the tuning, but it sounds pretty good in
normal, for 6-string. its an easy intro. good luck
|x|--------------------------------------------------------|
|x|--------------------------------------------------------|
|x|--------------------------------------------------------|
|x|-----9--10--9------------9--10--9---------9---8---------|
|x|-7-------------7-------------------7--------7---6-------|
|X|--------------------------------------------------------|
|x|--------------------------------------------------------|
|x|--------------------------------------------------------|
|x|--------------------------------------------------------|
|x|--9--10--9----------9--10--9--------9---10--------------|
|x|------------7-----------------7-------7----8------------|
|X|--------------------------------------------------------|
thats it for the intro/main verses
tabbed by science - any ideas about the rest of the song, contact me at [email protected]
|3nc3 0wnZZ y0uR @$$!!!!1!!!!11!!




Ваше мнение



Капча