----------------------------------------------------------------------------
Lets do this now - korn
----------------------------------------------------------------------------
Tabbed By : Ki11er
e-mail: [email protected]
Tuning:adgcf (down a whole step on each string)
mannn i know this is 99.9% correct this time. im sorry bout that my other tabs
exept deep inside. they were my first 4 now i got the hang of it. =) enjoy
F|-------------------------------------||
C|-------------------------------------||
G|--12---------------------------------|| with bag pipes (the # twelve)
D|-------------------------------------||
A|-----8-------------------------------||
chorus
F|-------------------------------------||
C|-------------------------------------||
G|-------------------------------------|| repeat like in the song
D|-------------------------------------|| (instead of 8 you can also use
A|-8-0-0-0--8-0-0-8-0-0-8-0-0-0--------|| 3 on the D string)
verse
F|-------------------------------------||
C|-------5--------5--------------------|| w
G|-------------------------------------||
D|-3-3-3----33-3-----------------------||
A|-------------------------------------||
bridge
F|-------------------------------------||
C|-------------------------------------||
G|-------------------------------------||
D|-0----3------3-----2-----------------||
A|-------------------------------------||
F|-------------------------------------||
C|-------------------------------------||
G|-------------------------------------||
D|--0----3----2h3--3----2--------------||
A|-------------------------------------||
F|-------------------------------------||
C|-------------------------------------||
G|-------------------------------------||
D|-------------------------------------||
A|--8-0------8-0------8-0-----8-0------||




Ваше мнение



Капча