TUNING: A, D, G, C, F, A, D

Intro/Verse:
D--------------------------------------------------------------
A------8----------8------------------8----------8--------------
F---11---11----11---11---11---11--11---11----11---11---11---11-
C-9---------9----------9----9----8--------8----------8----8----
G--------------------------------------------------------------
D--------------------------------------------------------------
A--------------------------------------------------------------

Pre-Chorus:
D---------
A---------
F---------
C---7-----
G-2-7-3-8-
D-2-5-3-8-
A-0---1-6-

Chorus:
D----------------
A-13-12-------11-
F-------11-10----
C-10-9--------8--
G--------9--8----
D----------------
A----------------

Bridge:
D----12----12----------------12-
A-------12----12----12----12----
F-14-------------14----14-------
C-------------------------------
G-------------------------------
D-------------------------------
A-------------------------------




Ваше мнение



Капча