From [email protected] Wed Apr 9 12:47:19 1997
Date: Sat, 22 Mar 1997 18:16:36 -0800
From: Library User
To: [email protected]
Subject: KoRn-Kunt tab

From Jonathan Roark and Brandon Salley

Okay this is our version of Kunt from KoRn we think that it's right,
You probably will too.fuck you.

RIFF 1
D|-------------------------------------------------------
A|-------------------------------------------------------
F|-------------------------------------------------------
C|-------------------------------------------------------
G|--11-/-10-----9----8---8----8-/-9-\-8----8----8--------
D|--10-/-9------8----7---7----7-/-8-\-7----7----7--------

RIFF 2
D|-------------------------------------------------------
A|-------------------------------------------------------
F|-------------------------------------------------------
C|-------------------------------------------------------
G|--11-/-10-----9----8---8-------------------------------
D|--10-/-9------8----7---7-------------------------------

RIFF 3
D|-------------------------------------------------------
A|-------------------------------------------------------
F|-------------------------------------------------------
C|-------------------------------------------------------
G|---5-/-4------3----2---2----2-/-3-\-2----2----2--------
D|---5-/-4------3----2---2----2-/-3-\-2----2----2--------

Suck your grandfathers yellow toes if this doesn't sound right to you.
thanks and mad props go to us.


Ваше мнение



Капча