Hey, I just got a 7 string guitar and i noticed there is only a
bass tab for this wierd ass song,the
song is basicly a bunch of wierd riffs so
here it is
Tuning
A,D,G,C,F,A,D intro: Dist.
A--2-3-2-1-0-2-3-2-1-0-0-2-3-2-1-0-2-3-2-1-0
D-------------------------------------------
G-------------------------------------------
C-------------------------------------------
F-------------------------------------------
A-------------------------------------------
D-------------------------------------------
gtr 2
A--2-3-2-1-0-2-3-2-1-0-0-2-3-2-1-0-2-3-2-1-0
D--4-5-4-3-2-4-5-4-3-2-2-4-5-4-3-2-4-5-4-3-2
G-------------------------------------------
C-------------------------------------------
F-------------------------------------------
A-------------------------------------------
D-------------------------------------------
verse: gtr 2 w/ some type of sound flutter effect
A---------------------------------------------------
D---------------------------------------------------
G---------------------------------------------------
C---------------------------------------------------
F--7~~~~~~~-7~~~~~~~~--7~~~~~-8~~~~-6~~~~6-7-8-6-7-6
A---------------------------------------------------
D---------------------------------------------------
gtr.1
clean tone
A-----------------------------------------------------------
D-----------------------------------------------------------
G-----------------------------------------------------------
C--0--------------0-------------0-------------0-------------
F-----7--7-7rb(8)----7--7-7rb(8)---7--7-7rb(8)--7--7h8---8p7
A------------------------------------------------------6----
break between verses (intro)
A--2-3-2-1-0-2-3-2-1-0-0-2-3-2-1-0-2-3-2-1-0
D-------------------------------------------
G-------------------------------------------
C-------------------------------------------
F-------------------------------------------
A-------------------------------------------
D-------------------------------------------
gtr 2
A--2-3-2-1-0-2-3-2-1-0-0-2-3-2-1-0-2-3-2-1-0
D--4-5-4-3-2-4-5-4-3-2-2-4-5-4-3-2-4-5-4-3-2
G-------------------------------------------
C-------------------------------------------
F-------------------------------------------
A-------------------------------------------
D-------------------------------------------
then verse 2 (verse 1)
D---------------------------------------------------
G---------------------------------------------------
C---------------------------------------------------
F--7~~~~~~~-7~~~~~~~~--7~~~~~-8~~~~-6~~~~6-7-8-6-7-6
A---------------------------------------------------
D---------------------------------------------------
gtr.1
clean tone
A-----------------------------------------------------------
D-----------------------------------------------------------
G-----------------------------------------------------------
C--0--------------0-------------0-------------0-------------
F-----7--7-7rb(8)----7--7-7rb(8)---7--7-7rb(8)--7--7h8---8p7
A------------------------------------------------------6----
then intro again
A--2-3-2-1-0-2-3-2-1-0-0-2-3-2-1-0-2-3-2-1-0
D-------------------------------------------
G-------------------------------------------
C-------------------------------------------
F-------------------------------------------
A-------------------------------------------
D-------------------------------------------
gtr 2
A--2-3-2-1-0-2-3-2-1-0-0-2-3-2-1-0-2-3-2-1-0
D--4-5-4-3-2-4-5-4-3-2-2-4-5-4-3-2-4-5-4-3-2
G-------------------------------------------
C-------------------------------------------
F-------------------------------------------
A-------------------------------------------
D-------------------------------------------
then chorus gtr.1 (lead)
A--------------------------
D--------------------------
G--------------------------
C--------------------------
F--------------------------
A--------------------------
D-13-13/11-/16-16-16-/18-14
(rhythm w/dist)
A--0---0---0--2------2--3--1-0---0---0--2----2--3---3
D--2-------2--4---3--4--5--3--------------3-------2--
G-----------------5----------------------------------
C----------------------------------------------------
F----------------------------------------------------
A----------------------------------------------------
D----------------------------------------------------
A-0-0-0-0-1-0---0-0-0-0-1-0-0-0-0-0-1-0
D--------------------------------------
G--------------------------------------
C--------------------------------------
F--------------------------------------
A--------------------------------------
D--------------------------------------
then verse, then outro
A-----------------------------
D-----------------------------
G-----------------------------
C--9--9--7--12-12-------------
F-11-11--9--12-12-14p12h14p12-
A-----------------------------
D-----------------------------
key
h hammer-on
p pull-off
/ slide
rb release bend
any trouble im me at Igot00issues PEACE,STONE CrUsHeS ALL


Ваше мнение



Капча