Artist: KoRn
Song: I can remember
Tabbed by: Ratmer ([email protected])
both guitars are (of course) 7-string guitars tuned down 1 whole step.
intro
w/ wah & dist.
D|-------------------------------------------------
A|-------------------------------------------------
F|-------------------------------------------------
C|-------------------------------------------------
G|-------------------------------------------------
D|--6-------6-------7-h9-p7-6-------6-------6-h8---
A|----0-0-0---0-0-0-----------0-0-0---0-0-0--------
verse
guitar1:
w/ delay
D|-------------------------------------------------
A|--12-12-12--13-13-13--12-12-12--12-13-12-13------
F|-------------------------------------------------
C|-------------------------------------------------
G|-------------------------------------------------
D|-------------------------------------------------
A|-------------------------------------------------
guitar2:
w/ delay
D|---------------------
A|--12-13-12-13--------
F|---------------------
C|---------------------
G|---------------------
D|---------------------
A|---------------------
chorus
w/ dist.
D|--------------------------------------------
A|--------------------------------------------
F|--------------------------------------------
C|--9-9--8-8--7-7--6-6--5--4------------------
G|--9-9--8-8--7-7--6-6--5--4------------------
D|--7-7--6-6--5-5--4-4--3--2------------------
A|--0-0--0-0--0-0--0-0--0--0------------------
interlude
guitar1:
w/ dist.
D|--------------------------------------
A|--------------------------------------
F|--------------------------------------
C|--------3-----------------------------
G|--3--4--3--6--5-----------------------
D|--3--4--1--6--5-----------------------
A|--1--2-----4--3-----------------------
guitar2:
w/ fast tremolo
D|--------8-------8-----------15----------15-------
A|--6-7-6---6-7-6----13-14-13----13-14-13----------
F|-------------------------------------------------
C|-------------------------------------------------
G|-------------------------------------------------
D|-------------------------------------------------
A|-------------------------------------------------
that s it! please [email protected] me if u got questions or suggestions!
down with korn mp3 fakes! i can t wait till the 2nd of october!




Ваше мнение



Капча