Artist: Korn
Song: Hollow Life
Album: Untouchables
Tabbed By: Mathias

Tuning - A,D,G,C,F

Intro (with distortion)
F[----------|
C[----------|
G[----------|
D[---5------|
A[-3---6-8--|

Verse (same as intro)

Prechorus
F[-----------------|
C[-----------------|
G[-----------------|
D[-----3---5---7---|
A[-3------------8--|

Chorus (with distortion)
F[-----------|
C[-----------|
G[-----------|
D[-----------|
A[-33334333--|

Bridge
F[-----------------------------|
C[-----------------------------|
G[-----5~------3~------5~------|
D[-3~------6~------3~------6~--|
A[-----------------------------|

If any comments contact me at [email protected]




Ваше мнение



Капча