Band-korn
song-hey daddy
Intro:
d|-------------------------------|
a|-6~--9-7--/12---6~--9-7(5)/6-|
F|-------------------------------|
C|-------------------------------| (Guitar2)
G|-------------------------------|
D|-------------------------------|
A|-------------------------------|
d|--------------|
a|--------------|
F|-2-2-3-2-33-2-|
C|--------------| (Guitar1 with some effect)
G|--------------|
D|--------------|
A|--------------|
Chorus:
d|----------------------|
a|----------------------|
F|----------------------|
C|----------------------| (Guitar1)
G|-9--99--1010--99-10^--|
D|-9--99--1010--99-10^--|
A|-7--77--8-8---77-8^---|
d|-999999131313131313121212121212101010101010--|
a|-7777771111111111111010101010108-8-8-8-8-8---|
F|---------------------------------------------|
C|---------------------------------------------| (Guitar2)
G|---------------------------------------------|
D|---------------------------------------------|
A|---------------------------------------------|
This looks hard but it's just played fast...
Bridge:
d|--------------------------|
a|--------------------------|
F|--------------------------|
C|-X-X-XX-X-XX--------------| (Guitar1)
G|-X-X-XX-X-XX--------------|
D|-X-X-XX-X-XX--------------|
A|--------------------------|
d|--------------------------|
a|-------------12/13--12/13-|
F|--------------------------|
C|--------------------------| (Guitar2)
G|--------------------------|
D|--------------------------|
A|--------------------------|
Chorus:
d|----------------------|
a|----------------------|
F|----------------------|
C|----------------------| (Guitar1)
G|-9--99--1010--99-10^--|
D|-9--99--1010--99-10^--|
A|-7--77--8-8---77-8^---|
d|-999999131313131313121212121212101010101010--|
a|-7777771111111111111010101010108-8-8-8-8-8---|
F|---------------------------------------------|
C|---------------------------------------------| (Guitar2)
G|---------------------------------------------|
D|---------------------------------------------|
A|---------------------------------------------|
This looks hard but it's just played fast...
Outro:
d|-------------------------------|
a|-6~--9-7--/12---6~--9-7(5)/6-|
F|-------------------------------|
C|-------------------------------| (Guitar2)
G|-------------------------------|
D|-------------------------------|
A|-------------------------------|
d|--------------|
a|--------------|
F|-2-2-3-2-33-2-|
C|--------------| (Guitar1 with some effect)
G|--------------|
D|--------------|
A|--------------|




Ваше мнение



Капча