Artist: Korn
Song: Here To Stay
Album: Untouchables
Written By: Korn
Tuning: ADGCFD
Corrections: [email protected]
This is easy. It's played on Ibanez K-7, but you can still play it on a 6-string, it sounds kinda close.
Intro
Guitar One
------------------------
------------------------
------------------------
------------------------
------------------------
------------------------
0----1---0-3-1-0-0-0-2--
------------------------
------------------------
------------------------
------------------------
------------------------
------------------------
0----1---0-3-1-0-0-0-2--
------------------------
------------------------
------------------------
------------------------
------------------------
------------------------
0----1---0-3-1-0-0-0-2--
------------------------
------------------------
------------------------
------------------------
------------------------
------------------------
0------1-----0-3-1-0-0--
Main Riff
------------------------
------------------------
------------------------
------------------------
------------------------
------------------------
0----1---0-3-1-0-0-0-2--
------------------------
------------------------
------------------------
------------------------
------------------------
------------------------
0----1---0-3-1-0-0-0-2--
------------------------
------------------------
------------------------
------------------------
------------------------
------------------------
0----1---0-3-1-0-0-0-2--
------------------------
------------------------
------------------------
------------------------
------------------------
------------------------
0----1---0-3-1-0-0-0-2--
------------------------
------------------------
------------------------
------------------------
------------------------
------------------------
0----1---0-3-1-0-0-0-2--
------------------------
------------------------
------------------------
------------------------
------------------------
------------------------
0----1---0-3-1-0-0-0-2--
------------------------
------------------------
------------------------
------------------------
--------------------2---
0---1---0-3-1-0-0-0-----
------------------------
------------------------
------------------------
------------------------
------------------------
--------------------1---
0---1---0-3-1-0-0-0-----
------------------------
------------------------
------------------------
------------------------
------------------------
--------------------2---
0---1---0-3-1-0-0-0-----
------------------------
------------------------
------------------------
------------------------
------------------------
--------------------1---
0---1---0-3-1-0-0-0-----
------------------------
Verse
------------------------
------------------------
------------------------
------------------------
--------------------2---
0---1---0-3-1-0-0-0-----
------------------------
------------------------
------------------------
------------------------
------------------------
--------------------1---
0---1---0-3-1-0-0-0-----
------------------------
Play Four Times
Pre-Chorus
---------------------------
---------------------------
---------------------------
---------------------------
---------------------------
3--------------------------
-----2--0-2-3-2-0-2-2--0-2-
----------------------------
----------------------------
----------------------------
----------------------------
----------------------------
3---------------------------
---2--2--0-2-3-2-0-2-2--0-2-
---------------------------
---------------------------
---------------------------
---------------------------
---------------------------
3--------------------------
-----2--0-2-3-2-0-2-2--0-2-
-------------------------
-------------------------
-------------------------
-------------------------
-------------------------
3------------------------
---2--2--0-2-3-2-0-2-2---
Chorus
Guitar One
------------------------------------------
------------------------------------------
------------------------------------------
-------------------------5--------2--2----
---2--2--2--5--5--5--5---5--5--5--2--2--3-
---2--2--2--5--5--5--5---3--3--3--0--0--1-
---0--0--0--3--3--3--3------3--3--------1-
Guitar Two
(With Whammy)
------------------------10-10--10--10--12-12---10----
12-12-12-12-10-10-10-10---------------------13----13-
-----------------------------------------------------
-----------------------------------------------------
-----------------------------------------------------
-----------------------------------------------------
-----------------------------------------------------
Guitar One Plays His Part Four Times
Guitar Two
------------------------10-10--10--10--12-12---10----
12-12-12-12-10-10-10-10---------------------13----13-
-----------------------------------------------------
-----------------------------------------------------
-----------------------------------------------------
-----------------------------------------------------
-----------------------------------------------------
------------------------10-10-10-10-12-12-----10-----
12-12-12-12-10-10-10-10-------------------13----13---
-----------------------------------------------------
-----------------------------------------------------
-----------------------------------------------------
-----------------------------------------------------
-----------------------------------------------------
-------------------------10-10-10-10-10-10-10-10-----
12-12--12-12-10-10-10-10-----------------------------
-----------------------------------------------------
-----------------------------------------------------
-----------------------------------------------------
-----------------------------------------------------
-----------------------------------------------------
10-10-10-10-10-10-10-10--
-------------------------
-------------------------
-------------------------
-------------------------
-------------------------
-------------------------
Interlude
Guitar Two
(with effects)
-----------10----12----14--------------------------------------
12----10---------------------12------10---10----7----8---------
------------7-----9----11--------------------------------9-----
9------7----------------------9-------7----7----4----5---------
---------------------------------------------------------7-----
---------------------------------------------------------------
---------------------------------------------------------------
-----------10----12----14-----------------------10--10----10--12--
12----10---------------------12------10----10/--------------------
------------7-----9----11------------------------7---7-----7---9--
9------7----------------------9-------7-----7/--------------------
------------------------------------------------------------------
------------------------------------------------------------------
------------------------------------------------------------------
Bridge
Guitar One
PM
-------------------------------------------------------------------------------------------
-------------------------------------------------------------------------------------------
-------------------------------------------------------------------------------------------
-------------------------------------------------------------------------------------------
----------2----------------------2---------------------2-----------------------2-----------
-------------------------------------------------------------------------------------------
-0---0------0---0-0-0-0-----0-0----0---0-0-0-----0--0----0--0-0-0-0------0--0----0---0-0-0-
-------------------------------------------------------------------------------------------
-------------------------------------------------------------------------------------------
-------------------------------------------------------------------------------------------
-------------------------------------------------------------------------------------------
----------2----------------------2---------------------2-----------------------2-----------
-------------------------------------------------------------------------------------------
-0---0------0---0-0-0-0-----0-0----0---0-0-0-----0--0----0--0-0-0-0------0--0----0---0-0-0-
Heavy part of bridge
----------------------------------------------------------
----------------------------------------------------------
----------------------------------------------------------
----------------------------------------------------------
2-2-2------------2-3--4-5--2-2-2----------2-3-4-----------
2-2------------------------2-2----------------------------
0-0---0-0-0-0-0------------0-0---0--0-0-0-----------------
----------------------------------------------------------
----------------------------------------------------------
----------------------------------------------------------
----------------------------------------------------------
2-2-2------------2-3--4-5--2-2-2----------2-3-4-----------
2-2------------------------2-2----------------------------
0-0---0-0-0-0-0------------0-0---0--0-0-0-----------------
----------------------------------------------------------
----------------------------------------------------------
----------------------------------------------------------
----------------------------------------------------------
2-2-2------------2-3--4-5--2-2-2----------2-3-4-----------
2-2------------------------2-2----------------------------
0-0---0-0-0-0-0------------0-0---0--0-0-0-----------------
----------------------------------------------------------
----------------------------------------------------------
----------------------------------------------------------
----------------------------------------------------------
2-2-2------------2-3--4-5--2-2-2----------2-3-4-----------
2-2------------------------2-2----------------------------
0-0---0-0-0-0-0------------0-0---0--0-0-0-----------------
------------------------
------------------------
------------------------
------------------------
--------------------2---
0---1---0-3-1-0-0-0-----
------------------------
------------------------
------------------------
------------------------
------------------------
--------------------1---
0---1---0-3-1-0-0-0-----
------------------------
Repeat Chorus
End of Chorus
Guitar One
-----------------------------------
-----------------------------------
-----------------------------------
-----------------------------------
-----------------------------------
-----------------------------------
0----1----0--3--1--0--0--0--2------
Play Eight Times
Outro
Guitar One
------------------------
------------------------
------------------------
------------------------
------2-----------------
------------------------
0--0-----0---0-0-0-0----
------------------------
------------------------
------------------------
------------------------
------2-----------------
------------------------
0--0-----0---0-0-0------
------------------------
------------------------
------------------------
------------------------
------2-----------------
------------------------
0--0-----0---0-0-0-0----
------------------------
------------------------
------------------------
------------------------
------2-----------------
------------------------
0--0-----0---0-0-0------
------------------------
------------------------
------------------------
------------------------
------2-----------------
------------------------
0--0-----0---0-0-0-0----
------------------------
------------------------
------------------------
------------------------
------2-----------------
------------------------
0--0-----0---0-0-0------
------------------------
------------------------
------------------------
------------------------
------2-----------------
------------------------
0--0-----0---0-0-0-0----
------------------------
------------------------
------------------------
------------------------
------2-----------------
------------------------
0--0-----0---0-0-0------
------------------------
------------------------
------------------------
------------------------
------2-----------------
------------------------
0--0-----0---0-0-0------
Guitar Two
(with Whammy Pedal)
-----------------------------------
12-12-12--12--12-12-12--13-13------
-----------------------------------
-9--9--9---9---9--9--9--10-10------
-----------------------------------
-----------------------------------
-----------------------------------
-----------------------------------
12-12-12--12--12-12-12--13/15------
-----------------------------------
-9--9--9---9---9--9--9--10/12------
-----------------------------------
-----------------------------------
-----------------------------------
-----------------------------------
12-12-12--12--12-12-12--13-13------
-----------------------------------
-9--9--9---9---9--9--9--10-10------
-----------------------------------
-----------------------------------
-----------------------------------
-----------------------------------
12-12-12--12--12-12-12--13/15------
-----------------------------------
-9--9--9---9---9--9--9--10/12------
-----------------------------------
-----------------------------------
-----------------------------------
-----------------------------------
12-12-12--12--12-12-12--13-13------
-----------------------------------
-9--9--9---9---9--9--9--10-10------
-----------------------------------
-----------------------------------
-----------------------------------
-----------------------------------
12-12-12--12--12-12-12--13/15------
-----------------------------------
-9--9--9---9---9--9--9--10/12------
-----------------------------------
-----------------------------------
-----------------------------------
-----------------------------------
12-12-12--12--12-12-12--13-13------
-----------------------------------
-9--9--9---9---9--9--9--10-10------
-----------------------------------
-----------------------------------
-----------------------------------
gradually dive with whammy___________
----------------------------------------------------------
12-12-12---12-12---12-10----------------------------------
----------------------------------------------------------
-9--9--9----9--9----9--7----------------------------------
----------------------------------------------------------
----------------------------------------------------------
----------------------------------------------------------
Thats it!




Ваше мнение



Капча