title: Here to stay
band: korn
album: untouchables

tabbed by downkast([email protected])

This is usually played on a seven string but this is how it is played
on a six string. this is most of the song e-mail me if there are parts missing

Her to stay
Tuning: DGCFAD (Drop all strings by a tone)

INTRO
------------------
------------------
------------------
-0-2-3-3--22-00-5-
-0-2-3-3--22-00-5-
-0-2-3-3--22-00-5-

VERSE
-----------------
-----------------
-0-2-3-3--22-00-3
-0-2-3-3--22-00-3
-0-2-3-3--22-00-3
-----------------

PRECHORUS
-------------------
-------------------
-------------------
-5--2-3--5-4-2-3-1-
-5--2-3--5-4-2-3-1-
-5--2-3--5-4-2-3-1-

CHORUS
Guitar 1
----------------
----------------
----------------
-5--3--9-5--7-3-
-5--3--9-5--7-3-
-5--3--9-5--7-3-

Guitar 2
| tremolo picking |
-12-10-14-15-17--12-10-11-9-10-7-
-12-10-14-15-17--12-10-11-9-10-7-
---------------------------------
---------------------------------
---------------------------------
---------------------------------




Ваше мнение



Капча