Band:KoRn
Album:KoRn
Song:Helmet In The Bushes
Tabbed by Corey Adamson ([email protected])
Tuning : 7 String Tuned Low to High (A D G C F a d)

yep no1 really has this tab rite yet and its really a simple song.
This is very accurate so im expecting a GOOD rating.lol.
Cant wait to see KoRn this summer at projekt revolution. well anyways here's the song.

Intro:
d|--------------------------------------|
a|--------------------------------------|
F|--------------------------------------|
C|--------------------------------------| (Guitar1)
G|--------------------------------------|
D|--------------------------------------|
A|-0-0-0-0--2-3-2-1--0-0-0-0-1-2-1-0--0-|

Pre-Verse1:(Guitar1 & Guitar2)
d|-----------------------------------|
a|-----------------------------------|
F|-----------------------------------|
C|-----------------------------------| (Guitar1)
G|----------4/54-3----------3/43-2-|
D|-----------------------------------|
A|-0-0-0-0--2-3-2-1--0-0-0-0-1-2-1-0-|

Pre-Verse2:
d|----------------------------|
a|----------------------------|
F|----------------------------|
C|----------------------------| (Guitar1)
G|-2~~~~~~~~~~~~~~~~~~~~~~~~~~|
D|-2~~~~~~~~~~~~~~~~~~~~~~~~~~|
A|-0~~~~~~~~~~~~~~~~~~~~~~~~~~|

d|-------------------------17^|
a|---17^-(17)^-(17)^-(17)^----|
F|----------------------------|
C|----------------------------| (Guitar2)
G|----------------------------|
D|----------------------------|
A|----------------------------|

Verse:(Guitar1)
d|-----------------------|
a|-----------------------|
F|-----------------------|
C|---------13------------|
G|---------12------------|
D|---------11------------|
A|-0-0-0-0-10--0-0-0-0-0-|

Pre-Chorus:
d|--------------------|
a|--------------------|
F|--------------------|
C|-13-----------------| (Guitar1)
G|-12-----------------|
D|-11-----------------|
A|-10-0-0-0-0-0-0-0-0-|

d|-------------------------17^|
a|---17^-(17)^-(17)^-(17)^----|
F|----------------------------|
C|----------------------------| (Guitar2)
G|----------------------------|
D|----------------------------|
A|----------------------------|

Chorus:(Guitar1 & Guitar2)
d|-----------------------------------|
a|-----------------------------------|
F|-----------------------------------|
C|-----------------------------------|
G|----------4/54-3----------3/43-2-|
D|-----------------------------------|
A|-0-0-0-0--2-3-2-1--0-0-0-0-1-2-1-0-|

Verse:(Guitar1)
d|-----------------------|
a|-----------------------|
F|-----------------------|
C|---------13------------|
G|---------12------------|
D|---------11------------|
A|-0-0-0-0-10--0-0-0-0-0-|

Pre-Chorus:
d|--------------------|
a|--------------------|
F|--------------------|
C|-13-----------------| (Guitar1)
G|-12-----------------|
D|-11-----------------|
A|-10-0-0-0-0-0-0-0-0-|

d|-------------------------17^|
a|---17^-(17)^-(17)^-(17)^----|
F|----------------------------|
C|----------------------------| (Guitar2)
G|----------------------------|
D|----------------------------|
A|----------------------------|

Chorus:(Guitar1 & Guitar2)
d|-----------------------------------|
a|-----------------------------------|
F|-----------------------------------|
C|-----------------------------------|
G|----------4/54-3----------3/43-2-|
D|-----------------------------------|
A|-0-0-0-0--2-3-2-1--0-0-0-0-1-2-1-0-|

Bridge1:
d|-------------|
a|-------------|
F|-------------|
C|-------------| (Guitar1)
G|-2~~~~~~~~~~~|
D|-2~~~~~~~~~~~|
A|-0~~~~~~~~~~~|

d|--17^----17^-|
a|-------------|
F|-------------|
C|-------------| (Guitar2)
G|-------------|
D|-------------|
A|-------------|

Bridge2:

d|--------------------|
a|--------------------|
F|--------------------|
C|--------------------| (Guitar1)
G|--------------------|
D|--------------------|
A|-0-0---0-0X-0-0-0-0X|

d|--17^----17^-|
a|-------------|
F|-------------|
C|-------------| (Guitar2)
G|-------------|
D|-------------|
A|-------------|

Bridge3:
d|-----------------------|
a|-----------------------|
F|-----------------------|
C|---------13------------| (Guitar1)
G|---------12------------|
D|---------11------------|
A|-0-0-0-0-10--0-0-0-0-0-|

d|--17^----17^-|
a|-------------|
F|-------------|
C|-------------| (Guitar2)
G|-------------|
D|-------------|
A|-------------|

Chorus:(Guitar1 & Guitar2)
d|-----------------------------------|
a|-----------------------------------|
F|-----------------------------------|
C|-----------------------------------|
G|----------4/54-3----------3/43-2-|
D|-----------------------------------|
A|-0-0-0-0--2-3-2-1--0-0-0-0-1-2-1-0-|

Outro:(Guitar1 & Guitar2)
d|-----------------------------------|
a|-----------------------------------|
F|-----------------------------------|
C|-----------------------------------|
G|----------9/1098---------8/987-|
D|----------9/1098---------8/987-|
A|-0-0---0-----------0-0---0---------|

------Lyrics---------

ello, esta Caco
et eres Caco
Well, you know, you fuck'n call me the Caco, okay?

I keep asking, what's your lie?
It is disturbing
This isn't mine (Why)
Days keep passing
A lot of time (Me)
I don't feel right
Please God let me sleep tonight
Everyday confronted circumvents giving in
I just wanna know why
Don't give it up
Don't hit my stick
I keep asking
Well, again, please try
It is haunting
This takes my mind (Why)
Days keep passing
Line after line (Me)
I don't feel right
Please God let me sleep tonight,
die tonight, die tonight, die tonight
Everyday confronted circumvents giving in
I just wanna know why
Don't give it up
Don't hit my stick
Please God
Please God
Please God help me
Please God free me
Please God save me
From my painful situation
Please God don't let me slip in tonight, please God
Oh, please God don't let me chip in tonight, please God
Oh, please God don't let me slip in tonight, don't let me die
Please God don't let me give in tonight, don't let me die

well thats it. any questions e-mail me ([email protected]) KORN 4EVER!




Ваше мнение



Капча