-------------------------------------------------------------------------------
Got The Life- Korn
-------------------------------------------------------------------------------
By:Daniel([email protected])
INTRO
e|---------------------------------------------------------------------------|
B|---------------------------------------------------------------------------|
G|--99999999---7777---10-10-10-10---16-16-16-16------------------------------|
D|--xxxxxxxx---xxxx----x--x--x--x----x--x--x--x------------------------------|
A|--77777777---5555----8--8--8--8---14-14-14-14------------------------------|
E|---------------------------------------------------------------------------|
e|---------------------------------------------------------------------------|
B|---------------------------------------------------------------------------|
G|--99999999---7777---10-10-10-10---17-17-17-17------------------------------|
D|--xxxxxxxx---xxxx----x--x--x--x----x--x--x--x------------------------------|
A|--77777777---5555----8--8--8--8---15-15-15-15------------------------------|
E|---------------------------------------------------------------------------|
VERSE
e|-----12-13-10-12-13-17-----------------------------------------------------|
B|---------------------------------------------------------------------------|
G|---------------------------------------------------------------------------|
D|---------------------------------------------------------------------------|
A|---------------------------------------------------------------------------|
E|---------------------------------------------------------------------------|
CHORUS
e|---------------------------------------------------------------------------|
B|---------------------------------------------------------------------------|
G|--99999999---7777---10-10-10-10---16-16-16-16------------------------------|
D|--xxxxxxxx---xxxx----x--x--x--x----x--x--x--x------------------------------|
A|--77777777---5555----8--8--8--8---14-14-14-14------------------------------|
E|---------------------------------------------------------------------------|
e|---------------------------------------------------------------------------|
B|---------------------------------------------------------------------------|
G|--99999999---7777---10-10-10-10---17-17-17-17------------------------------|
D|--xxxxxxxx---xxxx----x--x--x--x----x--x--x--x------------------------------|
A|--77777777---5555----8--8--8--8---15-15-15-15------------------------------|
E|---------------------------------------------------------------------------|
INTERLUDE
e|---------------------------------------------------------------------------|
B|---------8------------------10-11-10----(8x)-------------------------------|
G|---6-9-7-----(4x)----------------------------------------------------------|
D|---------------------------------------------------------------------------|
A|---------------------------------------------------------------------------|
E|---------------------------------------------------------------------------|
ENDING
e|---------------------------------------------------------------------------|
B|---------------------------------------------------------------------------|
G|----16-17---99999999-------------------------------------------------------|
D|-----x--x---xxxxxxxx-------------------------------------------------------|
A|----14-15---77777777-------------------------------------------------------|
E|---------------------------------------------------------------------------|
===============================================================================




Ваше мнение



Капча