-Korn's guitarists both use 7-string guitars but 4 this one you can get
away with only one person having a 7-string. there are a few times where
wha and some otehr effects are also used in this song but im not that
sure where they all are.

INTRO/CHORUS:
Guitar 1:
E|----------7-7-8---------8-8----------7-7-8------------------------|
B|------------------------------------------------------------------|
G|--9--7-10------9--7-10------9--7-10--------9--7-10----------------|
D|------------------------------------------------------------------|
A|------------------------------------------------------------------|
E|------------------------------------------------------------------|
B|------------------------------------------------------------------|
-repeat several times. you can also countinously play some of it depending
how you hear the song.

Guitar 2:
E|------------------------------------------------------------------|
B|------------------------------------------------------------------|
G|------------------------------------------------------------------|
D|------------------------------------------------------------------|
A|--7777777777/5555/888888/131313131313-----------------------------|
E|--5555555555/3333/666666/111111111111-----------------------------|
B|--5555555555/3333/666666/111111111111-----------------------------|
-basically follows the same patterns as the other guitar but on other strings.
you might want to make this guitar quieter or the other guitar louder atleast
during this part.
1st VERSE: last time for guitar 1
Guitar 1 and 2: ||
E|(#1)12--13-17-12|(#2)-|12-10----12|---|--12-10----12-10-----------|
B|----------------|----7|------10---|-7-|--------10-------11--------|
G|----------------|----6|-----------|-6-|---------------------------|
D|----------------|----5|-----------|-5-|---------------------------|
A|----------------|-----|-----------|---|---------------------------|
E|----------------|-----|-----------|---|---------------------------|
B|----------------|-----|-----------|---|---------------------------|
- guitar 2's part is pre-bent and still holding the strings you unbend them.
another thing is that both of these are played with effects that i havent
identified for you. its mostly wha though. that might actually be it but i
dont kno for sure. they still sound good even with out the effects though.

Guitar 1:
E|------------------------------------------------------------------|
B|------------------------------------------------------------------|
G|------------------------------------------------------------------|
D|------------------------------------------------------------------|
A|------------------------------------------------------------------|
E|------------------------------------------------------------------|
B|-----2-XX-2-0-XXXX-2-XX-2-0-XXXX-2-XX-2-0-XXXX-2-XX-2-0-----------|
- this should be repeated a few times
-----CHORUS----
2nd Verse:
Guitar 2:
E|----------------------------| -this is played before guitar 1, let ring
B|----------------------------|
G|-----0----------------------|
D|----------------------------|
A|----------------------------|
E|----------------------------|
B|----------------------------|

Guitar 1:
E|------------------------------------------------------------------|
B|------------------------------------------------------------------|
G|------------------------------------------------------------------|
D|------------------------6-----------------------------------------|
A|-----4---------7----3---------4------------7--3-------------------|
E|------------------------------------------------------------------|
B|------------------------------------------------------------------|
-this is played a few times, let ring

BRIDGE:
Guitars 1 and 2:
E|(#2)------------5/6/5--|(#1)-----13/14/13--------------------------|
B|--------7--------------|-------------------------------------------|
G|--------6--------------|-------------------------------------------|
D|--------5--------------|-------------------------------------------|
A|-----------------------|-------------------------------------------|
E|-----------------------|-------------------------------------------|
B|-----------------------|-------------------------------------------|
-you repeat this several times

---CHORUS----

OUTRO:
Guitar 1:
E|------77788888888888888888888888888888888-------------------------|
B|-----------------------------------------555----------------------|
G|------------------------------------------------------------------|
D|------------------------------------------------------------------|
A|------------------------------------------------------------------|
E|------------------------------------------------------------------|
B|------------------------------------------------------------------|
-you can check the song to see how much you play each note. this also
might have some effects in it as well

Guitar 2:
E|------------------------------------------------------------------|
B|------------------------------------------------------------------|
G|------------------------------------------------------------------|
D|------------------------------------------------------------------|
A|-----777777777777777/555555555/88888888888------------------------|
E|-----555555555555555/333333333/66666666666------------------------|
B|-----555555555555555/333333333/66666666666------------------------|
- just like the chorus only its cut shorter. only repeat this as long
as guitar 1 is paying the 1st outro tab.
Guitar 1:
E|------77777777788888888888888888888-------------------------------|
B|-----------------------------------555555555555555555555----------|
G|------------------------------------------------------------------|
D|------------------------------------------------------------------|
A|------------------------------------------------------------------|
E|------------------------------------------------------------------|
B|------------------------------------------------------------------|
-after a while it switches to this which is a lot more evened out than
the other outro. this shuld be played at the end when no one else is playing.




Ваше мнение



Капча