(x4) Intro (Med. Finger) (0.00 - 0.19)
G-------------------------------------------------------------
D----------7---------------8----------------------------------
A------6-------7-------6-------7------------------------------
E--5---------------6------------------------------------------
Something takes apart of me... Something lost and never seen...
(x1) Verse 1 (Med. Finger) (0.25)
G-------------------------------------------------------------
D----------7--------------------------------------------------
A------6-------7----------------------------------------------
E--5----------------------------------------------------------
Everytime i start to belive...
(x6) Verse 1 cont. (Fast Finger) (0.27 - 0.58)
G-------------------------------------------------------------
D----------8------8---------------8---------------------------
A------7------7-------7-------7-------7-----------------------
E--6----------------------6-----------------------------------
Sometimes i cannot take this place...
(x2) Pre-Chorus (Med. Finger) (0.57 - 1.14)
G-------------------------------------------------------------
D-------------------------------------------------------------
A--5---4---0---3---2---1--------------------------------------
E-------------------------------------------------------------
G-------------------------------------------------------------
D-------------------------------------------------------------
A--5---4---0---1---3---2---1----------------------------------
E-------------------------------------------------------------
Slide the last note down the fret board after playing this verse
the 2nd time
(x4) Chorus (Fast Slapping) (1.15 - 1.32)
G----------R--------------------------------------------------
D----------E--------------------------------------------------
A----------S--------------------------------------------------
E--5---5---T---5---5---5---5555-------------------------------
G-------------------------------------------------------------
D-------------------------------------------------------------
A-------------------------------------------------------------
E--0---0---0---1---1---1---1---3------------------------------
(x1) (Med. Finger) (1.33 - 1.36)
G-------------------------------------------------------------
D-------------------------------------------------------------
A-------------------------------------------------------------
E--13---12---11---10---9---8---7---5--------------------------
(x4) (Med. Finger) (1.37 - 1.55)
G-------------------------------------------------------------
D----------7---------------8----------------------------------
A------6-------7-------6-------7------------------------------
E--5---------------6------------------------------------------
(x2) Pre-Chorus (Med. Finger) (1.56 - 2.13)
G-------------------------------------------------------------
D-------------------------------------------------------------
A--5---4---0---3---2---1--------------------------------------
E-------------------------------------------------------------
G-------------------------------------------------------------
D-------------------------------------------------------------
A--5---4---0---1---3---2---1----------------------------------
E-------------------------------------------------------------
Slide the last note down the fret board after playing this verse
the 2nd time
(x5) Chorus (Fast Slapping) (2.14 - 2.36)
G----------R--------------------------------------------------
D----------E--------------------------------------------------
A----------S--------------------------------------------------
E--5---5---T---5---5---5---5---5555---------------------------
G-------------------------------------------------------------
D-------------------------------------------------------------
A-------------------------------------------------------------
E--0---0---0---1---1---1---1---3------------------------------
(x4) Verse 2 (Fast Slapping) (2.44 - 2.55)
G-------------------------------------------------------------
D-------------------------------------------------------------
A-------------------------------------------------------------
E--2---2---2---2---2---2---2---2---2---2----------------------
(x4) Verse cont. (Fast slapping) (2.56 - 3.01)
G-------------------------------------------------------------
D-------------------------------------------------------------
A------3---3-------3---3------3---3-------3---3---------------
E--2-----------2-----------2----------2-----------2-----------
(x12) Verse 3 (Med. Slapping) (3.02 - 3.29)
G-------------------------------------------------------------
D-------------------------------------------------------------
A-------------------------------------------------------------
E--2---2---2---2---3---3---3---4---5--------------------------
(x8) Chorus (Fast Slapping) (3.29 - 4.04)
G----------R--------------------------------------------------
D----------E--------------------------------------------------
A----------S--------------------------------------------------
E--5---5---T---5---5---5---5---5555---------------------------
G-------------------------------------------------------------
D-------------------------------------------------------------
A-------------------------------------------------------------
E--0---0---0---1---1---1---1---3------------------------------
Bass Tabbed by 555mHz (Ellis Chen)
8/11/02




Ваше мнение



Капча