4 U by KoRn
Guitarist: Munky & Head
Album: Issues
Dif.: 3
Tabbed by Twiggy5
NOTE: Tune guitar down 1 whole step A D G C F A D
NOTE: Guitar 2 is synth. guitar but works perfect on normal guitar
Intro (Gtr. 1)
A|----|-------------0------|
F|----|-------------5------|
C|----|--2----------5------|
G|-7--|--2----------3------|
D|-7--|--0-----------------|
A|-5--|--------------------|
Intro (Gtr. 2)
F|----|-1---------|----------|--0--------------|
Verse (Gtr. 1)
A|-------------------|------------------|-0---------------|-----------------|
F|-------------------|------------------|-5---------------|-----------------|
C|--2----------------|------------------|-5---------------|-----------------|
G|--2----------------|------------------|-3---------------|-----------------|
D|--0----------------|------------------|-----------------|-----------------|
This shit right here..... I can see you........
Verse (Gtr. 2)
A|------------0----|-%-|------------0----|-%-|
F|----1------------|-%-|----0------------|-%-|
Fill (Gtr. 1)
F|---------------|-0------------|---------------|------------|-----------|
C|---------------|-9------------|---------------|------------|-2---------|
G|-7-------------|-9------------|---------------|------------|-2---------|
D|-7-------------|-7------------|---------------|------------|-0---------|
A|-0-------------|--------------|---------------|------------|-----------|
I couldn’t have...... wasn’t 4 U
Fill (Gtr. 2)
F|--1------------|--------------|-1-------------|------------|-----------|
C|---------------|-1------------|---------------|--2---------|-----------|
End (Gtr. 2) - There’s a bell at the end but I was just fucking around and a
12th fret harmonic on high d string matches the bell
Song Structre: -
Intro (Gtr. 1)/Intro (Gtr. 2)
Verse (Gtr. 1)/Verse (Gtr. 2)
Fill (Gtr. 1)/Fill (Gtr. 2)
End (Gtr. 1)
Very lovely song.. Very underrated and the guitar is quite hard to hear.
If you have any comments suggestions or corrections email me at [email protected]
===========For You - Korn
Transcribed By: Sam Sensabaugh ([email protected])
Tuned Down One Half Whole Step (DGCFAd)
This Song dosent seem to have any guitar in it...
but heres some chords to strum along to.
d ||----||----|
A ||----||----|
F ||----||-5--|
C ||-2--||-5--|
G ||-2--||-3--|
D ||-0--||----|
Just Listen for the Chord Changes...it should come easy.


Ваше мнение



Капча