Korn
Fieldy's bass solo
bad ass bass solo

g-----------------
d-----------------
a-----------------
e---------/12-----
b-3v----------9rb1
next
g--------------------------------|
d--------------------------------|
a--------------------------------|
e-----------------65v-----8b1rb--|
b-8-7-6-55-3-7-77------7---------|
next and last
g-------------------------------------------------|
d-------------------------------------------------|
a-------------------------------------------------|
e-------1-xx1x-2xx2-3xx3-4xx4-5xx5----------------|
b-0-xx0------------------------------op5op6op5op6-|
thats it


Ваше мнение



Капча