Song:Falling away from me
Band:Korn
Album:Issues
By:MOnkee
This is a easy song to play! It's one of my favorite! I'm not sure if it is 100% correct but
it sound alike. Enjoy!
intro, verse and interlude 1 and 2.(guitar 1) use a delay!
D|-------15--14----------14----------------------|
A|---17----------15--12--------------------------|
F|-----------------------------------------------|
C|-----------------------------------------------|
G|-----------------------------------------------|
D|-----------------------------------------------|
A|-----------------------------------------------|
D|-------15--14----------14----------------------|
A|---17----------15--12------14------------------|
F|-----------------------------------------------|
C|-----------------------------------------------|
G|-----------------------------------------------|
D|-----------------------------------------------|
A|-----------------------------------------------|
then both guitar! Try this before the verse begins!
D|-----------------------------------------------|
A|-----------------------------------------------|
F|-------(15)-----(15)--(15)-----(15)------------|
C|--------14-------14----14-------14-------------|
G|--------13-------13----13-------13-------------|
D|--------12-------12----12-------12-------------|
A|-----0------0-0-----0------0-0-----------------|
Verse (guitar 2)use distortion and delay!
D|-----------------------------------------------|
A|-----------------------------------------------|
F|-----------------------------------------------|
C|----------------------------------12~~~~~------|
G|-----------------------------------------------|
D|-----------------------------------------------|
A|-----------------------------------------------|
Chorus (guitar 1)distorted
D|-----------------------------------------------|
A|-----------------------------------------------|
F|-----------------------------------------------|
C|-----------------------------------------------|
G|---2---9---5---3-3-3---2---9---5---8-8-8-------|
D|---2---9---5---3-3-3---2---9---5---8-8-8-------|
A|---0---7---3---1-1-1---0---7---3---6-6-6-------|
chorus, bridge and outro(guitar 2)
D|-----------------------------------------------|
A|---000000000000000000000000000000000000--------|
F|---555555555553333333333333444444444444--------|
C|-----------------------------------------------|
G|-----------------------------------------------|
D|-----------------------------------------------|
A|-----------------------------------------------|
Ok,i hope you're agree with it. e-mail me ([email protected])Aguante KoRn




Ваше мнение



Капча