Tuning: Low to High (A D G F A D)
All notes and chords sound a while step lower then written
(key of a minor)
T - Tremelo picking
(_) - Half notes (held for 2 beats each)
(_). - Dotted half note (held for 3 beats)
/ - Bend
Intro gtr. 1 (clean)
D||----15---14-----------14---|---15---14-----------14--------|
A||-17-----------15-----------|-17----------15-----------14---|
F||------------------16-------|-----------------16------------|
G||---------------------------|-------------------------------|
D||---------------------------|-------------------------------|
A||---------------------------|-------------------------------|
gtr. 1 & 2 (dist.) (play 8x)
D||-------------------------|
A||-------------------------|
F||-9--------9--9-----------|
G||-8--------8--8-----------|
D||----7--7--------7--7--7--|
A||-6--0--0--6--6--0--0--0--|
1st Verse (clean)
D||----15---14-----------14---|---15---14-----------14--------|
A||-17-----------15-----------|-17----------15-----------14---|
F||------------------16-------|-----------------16------------|
G||---------------------------|-------------------------------|
D||---------------------------|-------------------------------|
A||---------------------------|-------------------------------|
1. Hey I'm feeling tired...
2. Day is here fading...
(dist.) play 4x)
D||-------------------------|
A||-------------------------|
F||-9--------9--9-----------|
G||-8--------8--8-----------|
D||----7--7--------7--7--7--|
A||-6--0--0--6--6--0--0--0--|
2nd Verse (repeat 1st verse)
1st Chorus (dist.)
D||---------------|----------------|---------------|----------------|
A||---------------|----------------|---------------|----------------|
F||---------------|----------------|---------------|----------------|
G||-(2)----(9)----|-(5).-----3--3--|-(2)----(9)----|-(5).-----8--8--|
D||-(2)----(9)----|-(5).-----3--3--|-(2)----(9)----|-(5).-----8--8--|
A||-(0)----(7)----|-(3).-----1--1--|-(0)----(7)----|-(3).-----6--6--|
Beating me down...
D||---------------|----------------|---------------|-----------------|
A||---------------|----------------|---------------|-----------------|
F||---------------|----------------|---------------|-----------------|
G||-(2)----(9)----|-(5).-----3--3--|-(2)----(9)----|-5--5----8-8-8-8-|
D||-(2)----(9)----|-(5).-----3--3--|-(2)----(9)----|-5--5----8-8-8-8-|
A||-(0)----(7)----|-(3).-----1--1--|-(0)----(7)----|-3--3----6-6-6-6-|
D||----15---14-----------14---|----15---14-----------14--------|
A||-17------------15----------|-17-----------15-----------14---|
F||-------------------16------|------------------16------------|
G||---------------------------|--------------------------------|
D||---------------------------|--------------------------------|
A||---------------------------|--------------------------------|
(Falling away from me) It's spinning roung & round
(Falling away from me) It's spinning round & round
D||----15---14-----------14---|----15---14-----------14--------|
A||-17-----------15-----------|-17-----------15-----------14---|
F||------------------16-------|------------------16------------|
G||---------------------------|--------------------------------|
D||---------------------------|--------------------------------|
A||---------------------------|--------------------------------|
(Falling away from me) It's lost and can't be found
(Falling away from me) slow it down
2nd Chorus (repeat 1st chorus)
D||---------------|----------------|---------------|----------------|
A||---------------|----------------|---------------|----------------|
F||---------------|----------------|---------------|----------------|
G||-(2)----(9)----|-(5).-----3--3--|-(2)----(9)----|-(5).-----8--8--|
D||-(2)----(9-----|-(5).-----3--3--|-(2)----(9)----|-(5).-----8--8--|
A||-(0)----(7)----|-(3).-----1--1--|-(0)----(7)----|-(3).-----6--6--|
Down into the
repeat 4x
D||---------------|
A||---------------|
F||---------------|
G||-(2)-----------|
D||-(2)-----------|
A||-(0)-----------|
ground
Bridge
D||-2----2----|-2--------|-5----2---2--|-2--------|-2----0----|-0--------|
A||-0----2----|-3--------|-5----3---2--|-3--------|-0----2----|-0--------|
F||-4----4----|-2--------|-1----2---2--|-0--------|-4----3----|-2--------|
G||-----------|----------|-------------|----------|-----------|----------|
D||-----------|----------|-------------|----------|-----------|----------|
A||-----------|----------|-------------|----------|-----------|----------|
Pressing me...
D||-0------0-|----------|
A||-0------0-|-0--------|
F||-0------0-|-8--------|
G||----------|-9--------|
D||----------|----------|
A||----------|----------|
repeat 4x (clean)
D||----15---14-----------14---|----15---14-----------14--------|
A||-17-----------15-----------|-17-----------15-----------14---|
F||------------------16-------|------------------16------------|
G||---------------------------|--------------------------------|
D||---------------------------|--------------------------------|
A||---------------------------|--------------------------------|
Well it's falling away from me
It's falling away from me
Well it's falling away from me
repeat 8x
D||-------------------------|
A||-------------------------|
F||-9--------9--9-----------|
G||-8--------8--8-----------|
D||----7--7--------7--7--7--|
A||-6--0--0--6--6--0--0--0--|
3rd Chorus (dist. )
Outro
D||---------------|----------------|---------------|----------------|
A||---------------|----------------|---------------|----------------|
F||---------------|----------------|---------------|----------------|
G||-(2)----(9)----|-(5).-----3--3--|-(2)----(9)----|-(5).-----8--8--|
D||-(2)----(9)----|-(5).-----3--3--|-(2)----(9)----|-(5).-----8--8--|
A||-(0)----(7)----|-(3).-----1--1--|-(0)----(7)----|-(3).-----6--6--|
Beating me down into the groung...
(Falling away from me)
D||---------------|----------------|---------------|----------------|
A||---------------|----------------|---------------|----------------|
F||---------------|----------------|---------------|---------------|
G||-(2)----(9)----|-(5).-----3--3--|-(2)----(9)----|-(5------8--8--|
D||-(2)----(9)----|-(5).-----3--3--|-(2)----(9)----|-(5------8--8--|
A||-(0)----(7)----|-(3).-----1--1--|-(0)----(7)----|-(3------6--6--|
...into the
repeat 5x
D||-------------|------------------|-------------|
A||-0--------0--|-0-------------0--|-0--------0--|
F||-3\--(3)--3--|-3/--(3)--(3)--3--|-3/--(3)--3--|
G||-------------|------------------|-------------|
D||-------------|------------------|-------------|
A||-------------|------------------|-------------|
ground




Ваше мнение



Капча