Downloaded from WWW.KORNWEB.COM

Fake - Bass Tab
1 Transcriptions

--------------------------------------------------------------

Transcribed By: CrickeT [email protected]

Tuning: (low to high) AEADG

INTRO
G||-----------------------------|
D||-----------------------------|
A||-----------------------------|
E||-----------------------------|
A||--0----0--0--0-0----0--0--0--|

VERSE
G||-----------------------------------|
D||-----------------------------------|
A||-----------------------------------|
E||-----------------------------------|
A||--3-3-3-2-2-1-1-1-2-2-2-1-1-0-0-0--|

CHORUS
G||-----------------------------|
D||-----------------------------|
A||-----------------------------|
E||-----------------------------|
A||--3--x-2--1-1---2--x-1--0-0--|

BRIDGE
G||-----------------------------------|----------------|
D||-----------------------------------|----------------|
A||-----------------------------------|----------------|
E||-----------------------------------|----------------|
A||--4-4-4-4-3-3-3-3-3-3-3-3-2-2-2-2--|--0----0--0--0--|




Ваше мнение



Капча